Song name
# A B C D E F G H I J K L M N O P Q R S T U V W X Y Z

Dance Gavin Dance - Its Safe To Say You Dig The Backseat tab

i just figured it out the intro yet but i surely will do the whole later rate and comment please .

e-------------------------------------------------------------------|
b-------------------------------------------------------------------|
g----------------------------------------------------121212121212---|
d9999999999101010101010101010101010101014141414141414xxxxxxxxxxxx---|
a7777777777777777777777777777777777777710101010101010101010101010---|
d-------------------------------------------------------------------|

e-------------------------------------------------------------------|
b-------------------------------------------------------------------|
g-------------------------------------------------------------------|
d-------------------------------------------------------------------|
a-------------------------------------------------------------------|
d1212121212121212121212101010101099999999999999999999999999999999999|

e-------------------------------------------------------------------\
b------------------------------------------------------------------- \ 
g-------------------------------------------------------------------  \
d9999999999101010101010101010101010101014141414141414---------------   \
a7777777777777777777777777777777777777710101010101010---------------    \
d-------------------------------------------------------------------     \
                                                                           X2
e-------------------------------------------------------------------     /
b-------------------------------------------------------------------    /
g-------------------------------------------------------------------   /
d----------------------------------141414141414---------------------  /
a1515151515151414141414141717171717------------141414141414--------- / 
d-------------------------------------------------------------------/

e---5-55----5-55---|
b--5--55---5--55---|
g-5---55--5---55---|
d7----77-7----77---|
a------------------|
d------------------|

this is my second tab so please dont be so hard on me.
Tap to rate this tab
# A B C D E F G H I J K L M N O P Q R S T U V W X Y Z