Song name
# A B C D E F G H I J K L M N O P Q R S T U V W X Y Z

Dance Gavin Dance - Burning Down The Nicotine Armoire Part 2 tab

Artist: Dance Gavin Dance
Song: Burning Down The Nicotine Armoire, Pt. 2
Album: Dance Gavin Dance
Tuning: Drop D


E---10----10----14-10-----10----10----14-10----10-----|
B------12----12-------12-----12----12-------12----12--|
G-----------------------------------------------------|
D-----------------------------------------------------|
A-----------------------------------------------------|
D-----------------------------------------------------|

E---10----10----14-10-----10----10----14-10----10-----|
B------12----12-------12-----12----12-------12----12--|
G-----------------------------------------------------|
D-----------------------------------------------------|
A-----------------------------------------------------|
D-----------------------------------------------------|

Guitar 1

E-----------------------------------------------------|
B-----------------------------------------------------|
G----18-----11-----19-----18-----11-------------------|
D----x--x3--x--x3--x--x3--x--x3--x--x4----------------|
A----16-----9------17-----16-----9--------------------|
D-----------------------------------------------------|


this is all i can figure out. hopefully someone can take this and run with it. thanks!
Tap to rate this tab
# A B C D E F G H I J K L M N O P Q R S T U V W X Y Z