Song name
# A B C D E F G H I J K L M N O P Q R S T U V W X Y Z

Dance Gavin Dance - Strawberry Swisher Part 2 tab

-------------------------------------------------------------------------
                Strawberry Swisher Pt. 2 by Dance Gavin Dance
-------------------------------------------------------------------------
Tabbed by: Samuel Balfour
Email: thebalfourshow@hotmail.co.uk

Tuning: Drop D

Guitar 1 - Zac
Guitar 2 - Will

I know this is nowhere near complete or 100% accurate (or tabbed coherently
for that matter), but its a start. I will try and get the rest figured out
as soon as I can.

Verse 1
Play 4 Times
e|--------------8-------------------------------------|
B|---9----9-x---9-9-x---9---9--9--9--9--9--9--9-xx----|
G|--10---10-x----10-x--10--10-10-10-10-10-10-10-xx----|
D|--11---11-x-------x--10--10-10-10-10-10-10-10-xx----|
A|----------------------------------------------------|
D|----------------------------------------------------|

e|------------8---------------------------------------|
B|--9---9--x--9-9--x--9---9--9--9--9--9--9--9--xx-----|
G|--10--10-x----10-x--10--10-10-10-10-10-10-10-xx-----|
D|--8---8--x-------x--10--10-10-10-10-10-10-10-xx-----|
A|----------------------------------------------------|
D|----------------------------------------------------|


Pre-Chorus
Guitar 1
e|-----------------|-------------------------|
B|--9~-------------|---9~----------9~--------|
G|---------10~-----|----------8~--------6br--|
D|-----------------|-------------------------|
A|-----------------|-------------------------|
D|-----------------|-------------------------|

Guitar 2
e|------------------|------------------------|
B|------------------|------------------------|
G|--8----8h10-------|---8----8h10--8~--------|
D|-------------11~--|------------------------|
A|------------------|------------------------|
D|------------------|------------------------|

Chorus
Play 2 Times
Guitar 1 (light Palm-Mute)
e|------------------------------------|-------------------------------------|
B|-----9--9-----9---------------------|-----9--9-----9----------------------|
G|x-x--10-10-xx-10--101010-10-8-8-10--|x-x--10-10-xx-10--101010-10-8-8-10-10|
D|x-x-------------------------------8-|x-x----------------------------------|
A|------------------------------------|-------------------------------------|
D|------------------------------------|-------------------------------------|

e|-------------------------------------|-----------------------------|
B|------9---9----9---------------------|-9~--------------------------|
G|-x-x--10-10-xx-10--101010-10-8-8-10--|---------10~----8--10br------|
D|-x-x---------------------------------|-----------------------------|
A|-------------------------------------|-----------------------------|
D|-------------------------------------|-----------------------------|


Guitar 2
e|--9-9-9-8-xx--------------8h9p8---|--9-9-9-8-xx-------------8h9p8---------|
B|--9-9-9-9-xx-9--------9---------9-|--9-9-9-9-xx--9-------9---------9------|
G|----------xx-10--8h10--10---------|----------xx-10--8h10--10--------------|
D|----------------------------------|---------------------------------------|
A|----------------------------------|---------------------------------------|
D|----------------------------------|---------------------------------------|


e|--9-9-9-8--------------------13/16|-----------------------------------------|
B|--9-9-9-9-xx-9--9h11h13-11h13-----|--9-x-9--x--9----9h11p9--13-11-9---------|
G|----------xx-10-------------------|-10-x-10-x--10-------------------10------|
D|----------------------------------|-----------------------------------------|
A|----------------------------------|-----------------------------------------|
D|----------------------------------|-----------------------------------------|


Verse 2
Guitar 2 - Play 3 Times
e|----------------------------8---|---------------------------------|
B|--------6---------9----9------9-|-------6---------9-----9---------|
G|------6--------10--------10----|------6--------10---------10-8----|
D|----8--------8-----------------|----8--------8-----------------11-|
A|--9--------9-------------------|--9--------9----------------------|
D|-------------------------------|----------------------------------|

e|----------------------------8---|----------------------8/4--------|
B|--------6----------6---9------9-|-------6---------6---------------|
G|------5----------5-------10----|------5---------5-----------------|
D|----6----------6---------------|----6---------6-------------------|
A|--8----------8-----------------|--8---------8---------------------|
D|-------------------------------|----------------------------------|

Guitar 1 (Listen for when to come in)
e|----------|-------8~---|--16-16--13-----------------13---------------|
B|--9~------|-9~------9~-|-------------16---14-14--16----16-14---------|
G|------10~-|----8~------|---------------------------------------------|
D|----------|------------|---------------------------------------------|
A|----------|------------|---------------------------------------------|
D|----------|------------|---------------------------------------------|

Breakdown Part 1
Guitar 1
e|--16-16--13--------------13----|-16-16--13--------------13-13--------|
B|------------16--14-14-16----16-|-----------16--14-14-16-------16-14--|
G|-------------------------------|-------------------------------------|
D|-------------------------------|-------------------------------------|
A|-------------------------------|-------------------------------------|
D|-------------------------------|-------------------------------------|

Guitar 2 (really not sure about this part so I will just put some basic notes to work with)
e|--------------------------------------|-----------------------------------|
B|--------------------------------------|-----------------------------------|
G|----------------13-13\10-10-x-8/10-10-|-----------------------------------|
D|------11-x-8-x------------------------|------11-x-8-x--11-11\8-8-x-6-x-6/8|
A|8/9-x---------------------------------|8/9-x------------------------------|
D|--------------------------------------|-----------------------------------|


Guitar 1
e|--16-16--13--------------13----|-16-16--13--------------13/----------|
B|------------16--14-14-16----16-|-----------16--14-14-16--------------|
G|-------------------------------|-------------------------------------|
D|-------------------------------|-------------------------------------|
A|-------------------------------|-------------------------------------|
D|-------------------------------|-------------------------------------|

Guitar 2
e|--------------------------------------|----------------------------------|
B|--------------------------------------|----------------------------------|
G|----------------13-13\10-10-x-8/10-10-|-----------------18-18\15-15-x-13-|
D|------11-x-8-x------------------------|------11-x-8-x---x--x--x--x--x-x--|
A|8/9-x---------------------------------|8/9-x------------16-16\13-13-x-11-|
D|--------------------------------------|----------------------------------|

Breakdown Part 2 (Play all of part 1 a 2nd time, but tremelo pick all notes of Guitar 1s part)

Pre Chorus 2
Guitar 1
e|--16-----13----|
B|---------------|
G|---------------|
D|---------------|
A|---------------|
D|---------------|

Guitar 2
e|-----------------|
B|---9h11----------|
G|--10---8h10--/8--|
D|-------11--------|
A|-----------------|
D|-----------------|

Then Play Chorus Again

Outro
Guitar 2 (Play until end of song, figure out your own strumming rhythm)
e|---------------------------------------------------|
B|---------------------------------------------------|
G|---------------------------------------------------|
D|--x-18-18-20-20-18-18----x-18-18-20-20-18-18-20----|
A|--x-16-16-16-16-16-16----x-16-16-16-16-16-16-16----|
D|--x-16-16-16-16-16-16----x-16-16-16-16-16-16-16----|

e|---------------------------------------------------|
B|---------------------------------------------------|
G|---------------------------------------------------|
D|--x-18-18-20-20-18-18----x-18-18-20-20-18-18-20----|
A|--x-15-15-15-15-15-15----x-15-15-15-15-15-15-15----|
D|--x-15-15-15-15-15-15----x-15-15-15-15-15-15-15----|

Guitar 1
Play Twice
e|---------------------------------|---------------------------|
B|---------------------------------|---------------------------|
G|--10--10--10--10--10-10br-10-----|--10--10--10--x--10-10br-10|
D|---------------------------------|---------------------------|
A|---------------------------------|---------------------------|
D|---------------------------------|---------------------------|
Play Twice
e|---------------------------------|-------------------------------|
B|---------------------------------|-------------------------------|
G|--10-10-10-10-10-10/11\10-10-----|--10-10-10-10-10-10/11\10-10---|
D|--x--x--x--x--x--x--x--x--x------|--x--x--x--x--x--x--x--x--x----|
A|--8--8--8--8--8--8-/9\-8--8------|--8--8--8--8--8--8-/9\-8--8----|
D|---------------------------------|-------------------------------|

This part I am not sure about either but it sounds close, listen carefully for the 
strumming pattern
Play Twice and add slides in when necessary
e|----------------------------------|--------------------------------------|
B|----------------------------------|--------------------------------------|
G|10/13-13-13-13-10-6-6-6-6-5-5-5-5-|10/13-13-13-13-15-15-13-13-10-10/13-13|
D|-x-x--x--x--x---x-x-x-x-x-x-x-x-x-|-x-x--x--x--x--x--x--x--x---x--x--x--x|
A|-8/11-11-11-11--8-4-4-4-4-3-3-3-3-|-8/11-11-11-11-13-13-11-11--8--8/11-11|
D|----------------------------------|--------------------------------------|

And thats it. Any suggestions or corrections are welcome


************************************

| /   slide up
| \   slide down
| h   hammer-on
| p   pull-off
| ~   vibrato
| +   harmonic
| x   Mute note
| b   Bend
| pb  Pre-bend
| br  Bend release
| pbr Pre-bend release
| brb Bend release bend

************************************
Tap to rate this tab
# A B C D E F G H I J K L M N O P Q R S T U V W X Y Z