Dance Gavin Dance - Lemon Meringue Tie tab

Song:Lemon Meringue Tie
Band: Dance Gavin Dance
Album: Downtown Battle Mountain
Transcribed by: hardcoreman94

This is my first full length tab. I think its 95% correct. Please Rate.
Enjoy =]

Dropped D Tuning

Intro
E|--------------------------------------------------------------------------|
B|-------------10h12p10-------------------------------10h12p10--------------|
G|--------11-12---------12-11--------------------11-12--------11-9--9/11----| x2
D|-12------------------------12-9-1212---12-----------------------12-----9--|
A|---10-------------------------------------10------------------------------|
D|-----12-------------------------------------12----------------------------|

E|-9999999999999999-7777777777777777-9999999999999999-7777777777777777----|
B|------------------------------------------------------------------------|
G|------------------------------------------------------------------------| x2
D|------------------------------------------------------------------------|
A|------------------------------------------------------------------------|
D|------------------------------------------------------------------------|

Verse
E|----------------------------------------------------------------------------|
B|0-10-12-0-12-15-0-15-17-0-10-0-10b11r10\8--0-10-12-0-12-15-0-15-17-0-7-0-7--|v
G|----------------------------------------------------------------------------|
D|----------------------------------------------------------------------------|
A|----------------------------------------------------------------------------|
D|----------------------------------------------------------------------------|

E|------------------------------------------------------------------------------------|
B|-0-10-12-0-12-15-0-15-17-0-10-0-10b11r10\8--0-10-12-0-12-15-0-15-17-0-19-0-19b20r19-|
G|------------------------------------------------------------------------------------|
D|------------------------------------------------------------------------------------|
A|------------------------------------------------------------------------------------|
D|------------------------------------------------------------------------------------|

Repeat the two parts above as needed.

E|------------------------------------------------------------------------------|
B|-0-10-12-0-12-15-0-15-17-0-10-0-10b11r10\8--0-10-12-0-12-15-0-15-17-0-19-0-19-|
G|------------------------------------------------------------------------------|
D|------------------------------------------------------------------------------|
A|------------------------------------------------------------------------------|
D|------------------------------------------------------------------------------|

End riff above with riff below

E|------10-----------------12-----12---12-----|
B|-----7---------------10-----10----10---10---|
G|----7---9-----11---12--12-----12----12---12-|
D|-7-9----------------------------------------|
A|--------------------------------------------|
D|--------------------------------------------|

E|-------------------------------------------------------------------------------|
B|0-10-12-0-12-15-0-15-17-0-10-0-10b11r10\8--0-10-12-0-12-15-0-15-17-0-7-0-7v----|
G|-------------------------------------------------------------------------------|
D|-------------------------------------------------------------------------------|
A|-------------------------------------------------------------------------------|
D|-------------------------------------------------------------------------------|

E|------------------------------------------------------------------------------------|
B|-0-10-12-0-12-15-0-15-17-0-10-0-10b11r10\8--0-10-12-0-12-15-0-15-17-0-19-0-19b20r19-|
G|------------------------------------------------------------------------------------|
D|------------------------------------------------------------------------------------|
A|------------------------------------------------------------------------------------|
D|------------------------------------------------------------------------------------|

Repeat the two riffs above as needed.
End on riff below.

E|------------------------------------------------------------------------|
B|-0-10-12-0-12-15-0-15-17-0-7-0-7v---------------------------------------|
G|----------------------------------------------111111-999----------------|
D|----------------------------------10-----7--------------121212-777-999--|
A|----------------------------------10-x8--7-x8---------------------------|
D|----------------------------------10-----7------------------------------|

Riff continues
Listen to the song to get the rhythm for the tremolo picking part below
Chorus
E|-7t-10t-17t-15t-14t-10t-7t-10t-5t-7t--7t-10t-17t-15t-14t-10t-12t-14t-----|
B|-------------------------------------------------------------------------|
G|-------------------------------------------------------------------------|
D|-------------------------------------------------------------------------|
A|-------------------------------------------------------------------------|
D|-------------------------------------------------------------------------|

play chords below to rhythm of the song
Bridge
E|--77-777-7-7-7-7-7777-77--1414-141414-14-14-14-14-14141414-1414---------|
B|--55-555-5-5-5-5-5555-55--1212-121212-12-12-12-12-12121212-1212---------|
G|--55-555-5-5-5-5-5555-55--1212-121212-12-12-12-12-12121212-1212---------|
D|------------------------------------------------------------------------| x2
A|------------------------------------------------------------------------|
D|------------------------------------------------------------------------|

E|-----------------------------------------------------------|
B|-----------------------------------------------------------|
G|-----------------------------------------------------------|  repeat as necessary
D|-555-/-121212-\-555-/-121212-\-555-/-121212-\-555-/-121212-|
A|-----------------------------------------------------------|
D|-----------------------------------------------------------|

repeat verse and then chorus
End with chord below

E|-77-777-7-7-7-7-7777-77--|
B|-55-555-5-5-5-5-5555-55--|
G|-55-555-5-5-5-5-5555-55--|
D|-------------------------|
A|-------------------------|
E|-------------------------|


Tablature Legend
----------------
 h   - hammer-on
 p   - pull-off
 b   - bend
 pb  - pre-bend
 r   - bend release (if no number after the r, then release immediately)
 /\  - slide into or out of (from/to "nowhere")
 s   - legato slide
 S   - shift slide
 - natural harmonic
[n]  - artificial harmonic
n(n) - tapped harmonic
 ~   - vibrato
 tr  - trill
 T   - tap
 TP  - trem. picking
 PM  - palm muting
\n/  - tremolo bar dip; n = amount to dip
 \n  - tremolo bar down
 n/  - tremolo bar up
/n\  - tremolo bar inverted dip
 =   - hold bend; also acts as connecting device for hammers/pulls
 <> - volume swell (louder/softer)
 x   - on rhythm slash represents muted slash
 o   - on rhythm slash represents single note slash
Tap to rate this tab
 
# A B C D E F G H I J K L M N O P Q R S T U V W X Y Z