Song name
# A B C D E F G H I J K L M N O P Q R S T U V W X Y Z

Dance Gavin Dance - Lemon Meringue Tie tab

I play this song in "Dropped D" tuning as it seems easiest to play it that way.  I 
that most of this tab is correct except for parts that Ive added to comopensate for the lack 
effects and what not.

TUNING: DADGBe

INTRO
e-----------------------------------------------------------------|
B-----------------------------10/12/10----------------------------|
G--------------------11--12-------------12/9----------------------|  x4
D-----12--9------------------------------------12/9---9/12--12----|
A------------12--10-----------------------------------------------|
D-----------------------------------------------------------------|

TREMELO PICKING/ PRE-VERSE
D-------------------------------------------------------|
A-------------------------------------------------------|
D-------------------------------------------------------|
G-------------------------------------------------------|
B-------------------------------------------------------|
e---10-----7-----10-----7-----10-----7-----10-----7-----|

VERSE
e--------------------------------------------------|
B-----------10/12/15--15/17/15---8/10/8/10/8-------|
G----12/14-----------------------------------------|
D--------------------------------------------------|
A--------------------------------------------------|
D--------------------------------------------------|

e--------------------------------12----------------------|
B-----------10/12/15--15/17/15-------15--12~~~-----------|
G----12/14-----------------------------------------------|
D--------------------------------------------------------|
A--------------------------------------------------------|
D--------------------------------------------------------|

e--------------------------------------------------|
B-----------10/12/15--15/17/15---8/10/8/10/8-------|
G----12/14-----------------------------------------|
D--------------------------------------------------|
A--------------------------------------------------|
D--------------------------------------------------|

e--------------------------------12/15/17~~~-------------|
B-----------10/12/15--15/17/15---------------------------|
G----12/14-----------------------------------------------|
D--------------------------------------------------------|   ALL x2
A--------------------------------------------------------|
D--------------------------------------------------------|

e------------------------12-------12-------12--------------|
B----5----7-------10---------10-------10-------10------10--|
G--------------12----12----------12-------12-------12------|
D----------------------------------------------------------|
A----------------------------------------------------------|
D----------------------------------------------------------|

VERSE

e-----------------------------------------|
B-----------------------------------------|
G-----5-5-5-5-5-5-5-5-5-5-5-5-5-5-5-5-----|
D-----5-5-5-5-5-5-5-5-5-5-5-5-5-5-5-5-----|
A-----3-3-3-3-3-3-3-3-3-3-3-3-3-3-3-3-----|
D-----------------------------------------|

e---------------------------------------------|
B---------------------------------------------|
G----10-10-10--9-9-9--7-7-7--2-2-2--4-4-4-----|
D----x--x--x---x-x-x--x-x-x--x-x-x--x-x-x-----|
A----9--9--9---7-7-7--5-5-5--0-0-0--2-2-2-----|
D---------------------------------------------|

TREMELO PICKING
e-------------17---15--14--15-| e------------17--15---12--14---|
B---12---15-------------------| B---12---15--------------------|
G-----------------------------| G------------------------------|
D-----------------------------| D------------------------------|
A-----------------------------| A------------------------------|
D-----------------------------| D------------------------------|

e---------------------------------------------------------------------------|
B---------------------------------------------------------------------------|
G---------------------------------------------------------------------------|
D-10-10-10-10-10-10-10-10--7-7-7-7-7-7-7-7--2-2-2-2-2-2-2-2--5-5-5-5-5-5-5-5|
A-10-10-10-10-10-10-10-10--7-7-7-7-7-7-7-7--2-2-2-2-2-2-2-2--5-5-5-5-5-5-5-5|
D-10-10-10-10-10-10-10-10--7-7-7-7-7-7-7-7--2-2-2-2-2-2-2-2--5-5-5-5-5-5-5-5|

e---------------------------------|     e--------------------------------|
B----15/12--15/12--15/12----------|     G---15/12--15/12--17/12----------|
G-------------------------14/12---|     B------------------------14/12---|
D---------------------------------|  x2 D--------------------------------| x2
A---------------------------------|     A--------------------------------|
D---------------------------------|     D--------------------------------|

e--------------------------------------------------------------------------|
B--------------------------------------------------------------------------|
G--------------------------------------------------------------------------|
D-10-10-10-10-10---10-10-10-10-10---10--10--10--10--10-10-10-10-10-10-10-10|
A-10-10-10-10-10---10-10-10-10-10---10--10--10--10--10-10-10-10-10-10-10-10|
D-10-10-10-10-10---10-10-10-10-10---10--10--10--10--10-10-10-10-10-10-10-10|

e-14-14-14-14-14---14-14-14-14-14---14--14--14--14--14-14-14-14-14-14-14-14|
B-13-13-13-13-13---13-13-13-13-13---13--13--13--13--13-13-13-13-13-13-13-13|
G--------------------------------------------------------------------------|
D-10-10-10-10-10---10-10-10-10-10---10--10--10--10--10-10-10-10-10-10-10-10|
A-10-10-10-10-10---10-10-10-10-10---10--10--10--10--10-10-10-10-10-10-10-10|
D-10-10-10-10-10---10-10-10-10-10---10--10--10--10--10-10-10-10-10-10-10-10|

e-12-12-12-12-12---12-12-12-12-12---12--12--12--12--12-12-12-12-12-12-12-12|
B-12-12-12-12-12---12-12-12-12-12---12--12--12--12--12-12-12-12-12-12-12-12|
G--------------------------------------------------------------------------|
D-10-10-10-10-10---10-10-10-10-10---10--10--10--10--10-10-10-10-10-10-10-10|
A-10-10-10-10-10---10-10-10-10-10---10--10--10--10--10-10-10-10-10-10-10-10|
D-10-10-10-10-10---10-10-10-10-10---10--10--10--10--10-10-10-10-10-10-10-10|

e-14-14-14-14-14---14-14-14-14-14---14--14--14--14---14-14-14-14-14-14-14-14|
B-13-13-13-13-13---13-13-13-13-13---13--13--13--13---13-13-13-13-13-13-13-13|
G---------------------------------------------------------------------------|
D-10-10-10-10-10---10-10-10-10-10---10--10--10--10---10-10-10-10-10-10-10-10|
A-10-10-10-10-10---10-10-10-10-10---10--10--10--10---10-10-10-10-10-10-10-10|
D-10-10-10-10-10---10-10-10-10-10---10--10--10--10---10-10-10-10-10-10-10-10|

e---12~~~~~~~---|
B---12~~~~~~~---|
G---------------|
D---10~~~~~~~---|
A---10~~~~~~~---|
D---10~~~~~~~---|

e----------------------------------| e----------------------------------|
B----------------------------------| B---3/15~~~~15--15/17--20--17~~~---|
G---3/15~~~~15--15/17--15--12~~~---| G----------------------------------|
D----------------------------------| D----------------------------------| x2
A----------------------------------| A----------------------------------|
D----------------------------------| D----------------------------------|

*FEEL FREE TO PLAY WHATEVER AT THIS POINT
I HAVE NO IDEA WHAT IS BEING PLAYED OR
THE NOTES THAT ARE BEING PLAYED.*

e--------------------------------------------------|
B-----------10/12/15--15/17/15---8/10/8/10/8-------|
G----12/14-----------------------------------------|
D--------------------------------------------------|
A--------------------------------------------------|
D--------------------------------------------------|

e--------------------------------12----------------------|
B-----------10/12/15--15/17/15-------15--12~~~-----------|
G----12/14-----------------------------------------------|
D--------------------------------------------------------|
A--------------------------------------------------------|
D--------------------------------------------------------|

e--------------------------------------------------|
B-----------10/12/15--15/17/15---8/10/8/10/8-------|
G----12/14-----------------------------------------|
D--------------------------------------------------|
A--------------------------------------------------|
D--------------------------------------------------|

e--------------------------------12/15/17~~~-------------|
B-----------10/12/15--15/17/15---------------------------|
G----12/14-----------------------------------------------|
D--------------------------------------------------------|
A--------------------------------------------------------|
D--------------------------------------------------------|

TREMELO PICKING
e-------------17---15--| e------------17--15--14--15--|
B---12---15------------| B---12---15------------------|
G----------------------| G----------------------------|
D----------------------| D----------------------------|
A----------------------| A----------------------------|
D----------------------| D----------------------------|

e------------17---15---| e------------17--15--19---|
B---12---15------------| B---12---15---------------|
G----------------------| G-------------------------|
D----------------------| D-------------------------|
A----------------------| A-------------------------|
D----------------------| D-------------------------|

e--------------------------------------------------------------------------|
B--------------------------------------------------------------------------|
G--------------------------------------------------------------------------|
D-10-10-10-10-10---10-10-10-10-10---10--10--10--10--10-10-10-10-10-10-10-10|
A-10-10-10-10-10---10-10-10-10-10---10--10--10--10--10-10-10-10-10-10-10-10|
D-10-10-10-10-10---10-10-10-10-10---10--10--10--10--10-10-10-10-10-10-10-10|

e-----------|
B-----------|
G-----------|
D---10~~~---|
A---10~~~---|
D---10~~~---|


I KNOW THERE ARE SOME MISTAKES BUT I FEEL ITS A LOT BETTER THAN SOME OF THE PREVIOUS 
FOR THIS SONG.
Tap to rate this tab
 
# A B C D E F G H I J K L M N O P Q R S T U V W X Y Z