Song name
# A B C D E F G H I J K L M N O P Q R S T U V W X Y Z

Dance Gavin Dance - Lemon Meringue Tie tab

Band:Dance Gavin Dance

Song:Lemon Meringue Tie

Tabbed by:untitled31

Tuning:Drop D(DADGBe)

Left-Sean O'Sullivan

Intro      palm mute------------
e|-------------------------------------------------------------------------
B|-------------------------------------------------------------------------
G|----------------------------------12p10----10h12-------------7777--------
D|-9-12----9-12-9-12-9-12-9-9-12----------12-------12--9-12----9999-9-12---
A|-------------------------------------------------------------------------
D|-------------------------------------------------------------------------

---------------------|
---------------------|
--12p10----10h12-----|
--------12-------12--|
---------------------|
---------------------|

e|-------|
B|-15-12-|tremolo pick x8 each
G|-------|play 4x
D|-------|
A|-------|
D|-------|

Verse part 1
e|----------------10---0-12p0--------------------------10---0-12p0---------|
B|-0-8h10/12-10-12--12--------10-10br-8-0-8h10/12-10-12---12---------------|
G|---------------------------------------------------------------------9-9b|
D|-------------------------------------------------------------------------|
A|-------------------------------------------------------------------------|
D|-------------------------------------------------------------------------|

e|----------------10---0-12p0--------------------------10---0-12p0-14-14b--|
B|-0-8h10/12-10-12--12--------10-10br-8-0-8h10/12-10-12---12---------------|
G|-------------------------------------------------------------------------|
D|-------------------------------------------------------------------------|
A|-------------------------------------------------------------------------|
D|-------------------------------------------------------------------------|

e|----------------10---0-12p0--------------------------10---0-12p0---------|
B|-0-8h10/12-10-12--12--------10-10br-8-0-8h10/12-10-12---12---------------|
G|---------------------------------------------------------------------9-9b|
D|-------------------------------------------------------------------------|
A|-------------------------------------------------------------------------|
D|-------------------------------------------------------------------------|

e|----------------10---0-12p0--------------------------10---0-12p0-14-14b--|
B|-0-8h10/12-10-12--12--------10-10br-8-0-8h10/12-10-12---12---------------|
G|-------------------------------------------------------------------------|
D|-------------------------------------------------------------------------|
A|-------------------------------------------------------------------------|
D|-------------------------------------------------------------------------|

e|---------------12-----12----12------|
B|----------10-----10-----10----10----|
G|-9~-11~-12--12-----12-----12----12--|
D|------------------------------------|
A|------------------------------------|
D|------------------------------------|

Verse part 2
e|----------------10---0-12p0--------------------------10---0-12p0---------|
B|-0-8h10/12-10-12--12--------10-10br-8-0-8h10/12-10-12---12---------------|
G|---------------------------------------------------------------------9-9b|
D|-------------------------------------------------------------------------|
A|-------------------------------------------------------------------------|
D|-------------------------------------------------------------------------|

e|----------------10---0-12p0--------------------------10---0-12p0-14-14b--|
B|-0-8h10/12-10-12--12--------10-10br-8-0-8h10/12-10-12---12---------------|
G|-------------------------------------------------------------------------|
D|-------------------------------------------------------------------------|
A|-------------------------------------------------------------------------|
D|-------------------------------------------------------------------------|

e|----------------10---0-12p0--------------------------10---0-12p0---------|
B|-0-8h10/12-10-12--12--------10-10br-8-0-8h10/12-10-12---12---------------|
G|---------------------------------------------------------------------9-9b|
D|-------------------------------------------------------------------------|
A|-------------------------------------------------------------------------|
D|-------------------------------------------------------------------------|

Prechorus
e|-----------------------------------|
B|-----------------------------------|
G|-11-11-11-9-9-9-7-7-7--------------|
D|----------------------7-7-7-7h9-9--|
A|-----------------------------------|
D|-----------------------------------|

Chorus
Tremolo Picking-Listen for the exact picking
e|-------/17-15-14-12-----------------------------/17-15-14-12-12-15--|
B|-12-15--------------12-15-10-12-12p0-12p0-12-15---------------------|
G|--------------------------------------------------------------------|
D|--------------------------------------------------------------------|x2
A|--------------------------------------------------------------------|
D|--------------------------------------------------------------------|

Interlude
e|-------------------------|
B|-------------------------|
G|---------------7/9~/11~--|
D|-10~-10\7~-10~-7/9~/11~--|x2
A|-10~-10\7~-10~-5/7~/9~---|
D|-10~-10\7~-10~-----------|

Breakdown
e|----------------------------------------------------------------------|
B|----------------------------------------------------------------------|
G|----------------------------------------------------------------------|
D|-1010101010--1010101010--10-10-10-10-10101010101010101010101010101010-|
A|-1010101010--1010101010--10-10-10-10-10101010101010101010101010101010-|
D|-1010101010--1010101010--10-10-10-10-10101010101010101010101010101010-|

Bridge
e|--14----14--------14----14----14~----14-----14--14--14--14-----14----14--|
B|12----12----12~-12----12----12-----12--12-12--12--12--12--12-12-12-12--12|
G|-------------------------------------------------------------------------|
D|-------------------------------------------------------------------------|
A|-------------------------------------------------------------------------|
D|-------------------------------------------------------------------------|

Drum Fill

e|----------------10---0-12p0--------------------------10---0-12p0---------|
B|-0-8h10/12-10-12--12--------10-10br-8-0-8h10/12-10-12---12---------------|
G|---------------------------------------------------------------------9-9b|
D|-------------------------------------------------------------------------|
A|-------------------------------------------------------------------------|
D|-------------------------------------------------------------------------|

e|----------------10---0-12p0--------------------------------------|
B|-0-8h10/12-10-12--12--------10-10br-8-10p0-8p0-7p0-5p0-3-5brbrbr-|
G|-----------------------------------------------------------------|
D|-----------------------------------------------------------------|
A|-----------------------------------------------------------------|
D|-----------------------------------------------------------------|

Final Chorus
e|-------/17-15-14-12-----------------------------/17-15-14-12-12-15--|
B|-12-15--------------12-15-10-12-12p0-12p0-12-15---------------------|
G|--------------------------------------------------------------------|
D|--------------------------------------------------------------------|x2
A|--------------------------------------------------------------------|
D|--------------------------------------------------------------------|

Outro
e|----------------------------------------------------------------------|
B|----------------------------------------------------------------------|
G|----------------------------------------------------------------------|
D|-1010101010--1010101010--10-10-10-10-10101010101010101010101010101010-|
A|-1010101010--1010101010--10-10-10-10-10101010101010101010101010101010-|
D|-1010101010--1010101010--10-10-10-10-10101010101010101010101010101010-|

************************************

Right-Will Swan
e|-----------------------------------------|
B|------------------10h12p10---------------|
G|------------11-12-----------11-9---------|
D|-12-9----------------------------12-9/12-|x4
A|------12-10------------------------------|
D|-----------------------------------------|

e|--------|
B|-15-12--|tremolo pick x8 each
G|--------|6x
D|--------|
A|--------|
D|--------|

Verse part 1

e|-------------------------|
B|-------------------------|
G|--9-9999-9~---9-9999-9~--|
D|--9-9999-9~---9-9999-9~--|
A|--7-7777-7~---7-7777-7~--|
D|-------------------------|

Will plays a riff along these lines of the lead one here
e|----------------10---0-12p0--------------------------10---0-12p0---------|
B|-0-8h10/12-10-12--12--------10-10br-8-0-8h10/12-10-12---12---------------|
G|---------------------------------------------------------------------9-9b|
D|-------------------------------------------------------------------------|
A|-------------------------------------------------------------------------|
D|-------------------------------------------------------------------------|

Verse part 2
e|-------------------------|
B|-------------------------|
G|--9-9999-9~---9-9999-9~--|
D|--9-9999-9~---9-9999-9~--|
A|--7-7777-7~---7-7777-7~--|
D|-------------------------|
e|-------------------------|
B|-------------------------|
G|--9-9999-9~---9-9999-9~--|
D|--9-9999-9~---9-9999-9~--|
A|--7-7777-7~---7-7777-7~--|
D|-------------------------|

Prechorus and Chorus
e|-------------------------------------------------|
B|-------------------------------------------------|
G|-------------------------------------------------|x5
D|---1010101010101010-77777777-22222222-55555555---|
A|---1010101010101010-77777777-22222222-55555555---|
D|---1010101010101010-77777777-22222222-55555555---|

Interlude
e|--------------------------------------------|
B|------15-12-15-12---------------------15-12-|
G|------------------12-12-14br-12-14-12-------|
D|-12-9---------------------------------------|x3
A|--------------------------------------------|
D|--------------------------------------------|

e|-15--15--15--15--14--14--14--14---|
B|---15--15--15--15--15--15--15--15-|
G|----------------------------------|
D|----------------------------------|
A|----------------------------------|
D|----------------------------------|

e|--------------------------------------------|
B|------15-12-15-12---------------------15-12-|
G|------------------12-12-14br-12-14-12-------|
D|-12-9---------------------------------------|
A|--------------------------------------------|
D|--------------------------------------------|

e|--------------------------------------------|
B|------15-12-15-12---------------------------|
G|------------------12-12-14br-12-14-12-------|
D|-12-9---------------------------------12-9--|
A|--------------------------------------------|
D|--------------------------------------------|

e|--------------------------------------------|
B|------15-12-15-12---------------------15-12-|
G|------------------12-12-14br-12-14-12-------|
D|-12-9---------------------------------------|
A|--------------------------------------------|
D|--------------------------------------------|

e|-15-14----------|
B|-------15-12-10-|
G|----------------|
D|----------------|
A|----------------|
D|----------------|

Breakdown x2
e|----------------------------------------------------------------------|
B|----------------------------------------------------------------------|
G|----------------------------------------------------------------------|
D|-1010101010--1010101010--10-10-10-10-10101010101010101010101010101010-|
A|-1010101010--1010101010--10-10-10-10-10101010101010101010101010101010-|
D|-1010101010--1010101010--10-10-10-10-10101010101010101010101010101010-|

e|----------------------------------------------------------------------|
B|-1919191919--1919191919--19-19-19-19-19191919191919191919191919191919-|
G|-1717171717--1717171717--17-17-17-17-17171717171717171717171717171717-|
D|-xxxxxxxxxx--xxxxxxxxxx--xx-xx-xx-xx-xxxxxxxxxxxxxxxxxxxxxxxxxxxxxxxxx|
A|-1515151515--1515151515--15-15-15-15-15151515151515151515151515151515-|
D|----------------------------------------------------------------------|


Bridge

Bass and Drums

e|----------------------------------------------|
B|----------------------------------------------|
G|----------------------------------------------|x20
D|---5/12-12-12-12\5-5-5------------------------|
A|----------------------------------------------|
D|----------------------------------------------|

Final Prechorus and Chorus
e|-------------------------------------------------|
B|-------------------------------------------------|
G|-------------------------------------------------|x5
D|---1010101010101010-77777777-22222222-55555555---|
A|---1010101010101010-77777777-22222222-55555555---|
D|---1010101010101010-77777777-22222222-55555555---|

Outro
e|----------------------------------------------------------------------|
B|----------------------------------------------------------------------|
G|-------------------------------------19191919191919191919191919191919-|
D|-1010101010--1010101010--10-10-10-10-17171717171717171717171717171717-|
A|-1010101010--1010101010--10-10-10-10-xxxxxxxxxxxxxxxxxxxxxxxxxxxxxxxx-|
D|-1010101010--1010101010--10-10-10-10-15151515151515151515151515151515-|


************************************

| /   slide up
| \   slide down
| h   hammer-on
| p   pull-off
| ~   let ring
| +   harmonic
| x   Mute note
| b   Bend
| pb  Pre-bend
| br  Bend release
| pbr Pre-bend release
| brb Bend release bend

************************************
Tap to rate this tab
 
# A B C D E F G H I J K L M N O P Q R S T U V W X Y Z