Dance Gavin Dance - Nasa tab

Both Guitars:

D|---x-x-x----------------------------------|
A|---x-x-x----------------------------------|
D|---x-x-x----------------------------------|
G|-x----------------------------------------|
B|-x----------------------------------------|
e|-x----------------------------------------|

Guitar 1:

D|--------------------------------------| (The 6th and last time end on 8 on
A|--------------------------------------|  the B string)
D|--------------------------------------|
G|--------------------------------------|
B|12-17----15-(x3)-8p0-10p0-8p0-10p0----|
e|------14------------------------------|

Guitar 2:

D|------------------------------------------------------| (The 6th and last
A|-------------------------9h12-----9h12----------------|  time end on 9 on
D|-10----12--9h12-----(x3)-----9h12------9h12-----------|    G string)
G|----12---------9h12-------------------------9h12p9----|
B|------------------------------------------------------|
e|------------------------------------------------------|
Tap to rate this tab
 
# A B C D E F G H I J K L M N O P Q R S T U V W X Y Z