Song name
# A B C D E F G H I J K L M N O P Q R S T U V W X Y Z

Dance Gavin Dance - Elder Goose tab

Just the intro for Elder Goose. I'll tab the rest of the song later

e|----------------------------------------------------------------|
B|----------------------------------------------------------------|
G|----------------------------------------------------------------|
D|---3---3------------12----12------------------------------------|
A|---------3-3--------------------12/13---------------------------|
D|-1---1----1------10----10----10---------------------------------|


e|-----------------------------10---10----------------------------|
B|-10-10-10-10-11---10~------10--10---10--------------------------|
G|-12-12-12-12-12---12~------12--12---12--------------------------|
D|-12-12-12-12-12---12~------10--12---12--------------------------|
A|-10-10-10-10-10---10~------12--10---10--12/13-------------------|
D|--------------------------------------10------------------------|
Tap to rate this tab
 
# A B C D E F G H I J K L M N O P Q R S T U V W X Y Z