Dance Gavin Dance - Spooks tab

e|-----0------0-----------7------7---------0-----0----|
B|---------------1-----------------0-1--------------1-|
G|---2------2---------5-------5----------2-----2------|
D|-3------3---------7-------7----------3-----3--------|
A|----------------------------------------------------|
E|----------------------------------------------------|

e|-----7-----8-----7-----|
B|-----------------------|
G|---5---5-----5-----5---|
D|-7-------7-----7-----7-|
A|-----------------------|
E|-----------------------|
Tap to rate this tab
 
# A B C D E F G H I J K L M N O P Q R S T U V W X Y Z