Song name
# A B C D E F G H I J K L M N O P Q R S T U V W X Y Z

Dance Gavin Dance - Spooks tab

This was done by ear.

Intro (Guitar 1)

E|------------------------------|--------------19----------19------------
B|----------17-------------17---|----------------------------------------
G|------14-------------14-------|--17------17----------17----------17----
D|--15-------------15-----------|------19----------19----------19--------
A|------------------------------|----------------------------------------
E|------------------------------|----------------------------------------

E|------------------------------|
B|----------17-------------17---|
G|------14-------------14-------|
D|--15-------------15-----------|
A|------------------------------|
E|------------------------------|

E|---------------19-----------20---------19----------20--|
B|-------------------------------------------------------|
G|---17------17----------17----------17----------17------|
D|-------19----------19----------19----------19----------|
A|-------------------------------------------------------|
E|-------------------------------------------------------|

Verse (Guitar 1)

E|--------------------------------------------------------------------12h15-|
B|--12h13p12------------15--13--12--12h13p12------------12h13p12------------|
G|------------12h14p12------------------------12h9p12-------------12--------|
D|--------------------------------------------------------------------------|
A|--------------------------------------------------------------------(x3)--|
E|--------------------------------------------------------------------------|

E|----------------------------------------------15tp----------|
B|--12h13p12------------15--13--12--12tp--13tp--------12tp----|
G|------------12h14p12----------------------------------------|
D|------------------------------------------------------------|
A|------------------------------------------------------------|
E|------------------------------------------------------------|

E|--15p12------15p12------19p15------20p15--------------------|
B|---------13---------13---------17---------17----------------|
G|------------------------------------------------------------|
D|------------------------------------------------------------|
A|-----------------------------------------------------(x8)---|
E|------------------------------------------------------------|

Verse (Guitar 2)

E|--1--1--1--1----------5--5--5--5-----------------------------------|
B|--1--1--1--1----------5--5--5--5-----------------------------------|
G|--2--2--2--2----------5--5--5--5-----------------------------------|
D|--3--3--3--3----------7--7--7--7-----------------------------------|
A|--3--3--3--3----------7--7--7--7-----------------------------------|
E|--1--1--1--1----------5--5--5--5-----------------------------------|

Guitar 2 plays this throughout the verse. Listen to figure out the rhythm. 

Thats all I have for now!

Tablature Legend
----------------
L - tied note
x - dead note
g - grace note
(n) - ghost note
> - accentuded note
NH - natural harmonic
AH - artificial harmonic
TH - tapped harmonic
SH - semi harmonic
PH - pitch harmonic
h - hammer on
p - pull off
b - bend
br - bendRelease
pb - preBend
pbr - preBendRelease
brb - bendReleaseBend
\n/ - tremolo bar dip
\n - tremolo bar dive
-/n - tremolo bar Release up
/n\ - tremolo bar inverted dip
/n - tremolo bar return
-\n - tremolo bar Release down
S - shift slide
s - legato slide
/ -  slide into from below or out of upwards
\ -  slide into from above or out of downwards
~ - vibrato
W - wide vibrato
tr - trill
TP - tremolo picking
T - tapping
S - slap
P - pop
< - fade in
^ - brush up
v - brush down





Tap to rate this tab
 
# A B C D E F G H I J K L M N O P Q R S T U V W X Y Z