Song name
# A B C D E F G H I J K L M N O P Q R S T U V W X Y Z

Dance Gavin Dance - Jesus H Macy tab

-------------------------------------------------------------------------------
                    Jesus H. Macy - Dance Gavin Dance
-------------------------------------------------------------------------------
Tabbed by: tar pit trap
E-mail: soundgarden24@live.de

Tuning: Standard
3/4

This is the part Will plays during the intro and (I guess) also Jon's screaming part.
I wasn't able to figure out Josh's part and the rest of the song from the  live videos 
and the time I saw them live,
but at least this part should be right.
As soon as there is a studio version of the song available I will try to figure out the 
whole song for both guitars.

e|----------10---|----------10---|-------------15----|-------------15--------|
B|--------8----8-|--------8----8-|----------15----15-|----------15----15-----|
G|--8---8--------|--8---8--------|--12---12----------|--12---12--------------|
D|---------------|---------------|-------------------|-----------------------|
A|---------------|---------------|-------------------|-----------------------|
E|---------------|---------------|-------------------|-----------------------|

e|----------10---|----------10---|------------13---|------------13---------|
B|--------8----8-|--------8----8-|----------8----8-|----------8----8-------|
G|--7---7--------|--7---7--------|--8---8----------|--8---8----------------|
D|---------------|---------------|-----------------|-----------------------|
A|---------------|---------------|-----------------|-----------------------|
E|---------------|---------------|-----------------|-----------------------|

I hope it helped you, although it's not much.
If you have corrections or were able to figure out other parts,
feel free to tell me.

************************************

| /   slide up
| \   slide down
| h   hammer-on
| p   pull-off
| ~   vibrato
| +   harmonic
| x   Mute note
| b   Bend
| pb  Pre-bend
| br  Bend release
| pbr Pre-bend release
| brb Bend release bend

************************************
Tap to rate this tab
 
# A B C D E F G H I J K L M N O P Q R S T U V W X Y Z