Song name
# A B C D E F G H I J K L M N O P Q R S T U V W X Y Z

Dance Gavin Dance - The Robot With Human Hair Part 1 tab

Guitar Intro (Echo and Reverb makes it sound pretty good)  

                             PLEASE READ !!!

Tip: to actually make this possible, you gotta tap (quite slowly) the 17th fret 
while holding your fingers on either of the places tabbed, which creates the
'pull-off' action. 

Once you've figured out what i mean.. it sounds intense

Guitar 1 (will) (right earphone):

  t       t       t       t       t       t       t       t
e----------------------------------------------------------------------- ...
B-17(p)12---------17(p)12---------17(p)12---------17(p)12--------------- ...
G---------17(p)14---------17(p)14---------17(p)12---------17(p)12------- ...
D----------------------------------------------------------------------- ...
A----------------------------------------------------------------------- ...
D----------------------------------------------------------------------- ...

        t       t       t       t       t       t       t       t
e ... ------------------------------------------------------------------| 
B ... --17(p)12---------17(p)12---------17(p)12---------17(p)12---------|
G ... ----------17(p)10---------17(p)10---------17(p)10---------17(p)10-| x5
D ... ------------------------------------------------------------------|
A ... ------------------------------------------------------------------|
D ... ------------------------------------------------------------------|

Then through final (6th) time play: (00:31 secs.)

  t       t       t       t       t       t       t       t
e----------------------------------------------------------------------- ...
B-17(p)12---------17(p)12---------17(p)12---------17(p)12--------------- ...
G---------17(p)14---------17(p)14---------17(p)12---------17(p)12------- ...
D----------------------------------------------------------------------- ...
A----------------------------------------------------------------------- ...
D----------------------------------------------------------------------- ...

   
      t       t       t       t        t        t        t        t
e ... --------------------------------------------------------------------| 
B ... 17(p)12---------17(p)12---------------------------------------------|
G ... --------17(p)10---------17(p)10--17(p)10--17(p)10--17(p)10--17(p)10-| 
D ... --------------------------------------------------------------------|
A ... --------------------------------------------------------------------|
D ... --------------------------------------------------------------------|

 t = basically tap on 17th!
Tap to rate this tab
# A B C D E F G H I J K L M N O P Q R S T U V W X Y Z