Guitaretab - guitar tabs
Song name
# A B C D E F G H I J K L M N O P Q R S T U V W X Y Z

Dance Hall Crashers - Beverly Kills tab

Verse
|----------------------------------------------------------------------------------------|
|----------------------------------------------------------------------------------------|
|----------------------------------------2-----------------------------------------------|
|------------2-----------2--------------2------------4------------4------------2-2-------|
|------------2-----------2-------0-0----------------4------------4------------2--2-------|
|---0-0----------0-0-------------------------2-2----------2-2---------0-0----------------|

Chours
[ Tab from: http://www.guitaretab.com/d/dance-hall-crashers/38164.html ]
|-----------------------------------------------------------|
|-----------------------------------------------------------|
|-----------------------------------------------------------|
|----------2----------9---------11-----------7--------------|
|----------2----------9---------11-----------7--------------|
|----------0----------7----------9-----------5--------------|


Guitar solo
|----4-0-------5-0------4-0------5-0----------------------|
|---------0-----------0--------0---------0----------------|
|---------------------------------------------------------|pull off's
|---------------------------------------------------------| work good
|---------------------------------------------------------|  in this
|---------------------------------------------------------|   solo


It?s sounds pretty much perfect to me.. it?s  great song if u?r just starting out.
If u have suggestions or questions for me e-mail me at queenofspades10@hotmail.com
Related for Beverly Kills tab
Beverly Kills chords by Dance Hall Crashers