Song name
# A B C D E F G H I J K L M N O P Q R S T U V W X Y Z

Dance Hall Crashers - Good For Nothin tab

well i was looking for a guitar tab for this song and couldn't find one so i thought I'd 
it out, this is my first tab(everyone says that)but i'm pretty sure its all right...the 
are played throughout the whole song, you just have to figure out the strumming, well enjoy,

(bass solo)
then
E|--------------------------------------|
B|---5---7-------9-x-7-x-9-x-5-x-7------|
G|----6---8------9-x-8-x-9-x-6-x-8------|
D|-----7---9-----9-x-9-x-9-x-7-x-9------|
A|--------------------------------------|
e|--------------------------------------|

    little solo
E|---------------------------------------------|
B|---------------------------------------------|
G|----/9-9-9-9--8-6-4-44-6-4-------------------|
D|----------------------------6-7-6-7-7p4-4-22-| i think this part is right
A|---------------------------------------------|
e|---------------------------------------------|

E|-----------------------------------------|
B|-------------------------------5---7-----|
G|---/9-9-9-9--8-6-4-44-6-3-------6---8----|
D|---------------------------6-----7---9---| back to chords
A|-----------------------------------------|
e|-----------------------------------------|

well that's it, problems e- mail me at tgms2@msn.com
Tap to rate this tab
# A B C D E F G H I J K L M N O P Q R S T U V W X Y Z