Song name
# A B C D E F G H I J K L M N O P Q R S T U V W X Y Z

Dance Youre On Fire - Boxes Of Tigers tab

Dance,You're on Fire-Boxes of Tigers
Standard Tuning

 Sleutel:
x:  mute
/:  slide
p:  pull-off
h:  hammer-on
b:  bend
br: Bend-release
~:  let ring


E|--------------------------------------------------|                  |---|
B|--------------------------------------------------|                  |---|
G|-6-6-x-6-6---6-6-x-6-6---9-9-x-9-9-x-9-9-x-9-9-x--|                  |-6-|
D|-6-6-x-6-6---7-7-x-7-7---9-9-x-9-9-x-9-9-x-7-7-x--|  X4 Then end on  |-6-|
A|-4-4-x-4-4---7-7-x-7-7---7-7-x-7-7-x-7-7-x-7-7-x--|                  |-4-|
e|-------------5-5-x-5-5----------------------------|                  |---|

hold,slowly mute sound.

E|-------------------------------------------------------------------------|
B|-------------------------------------------------------------------------|
G|-6-6-x-6-6---6-6-x-6-6---9-9-x-9-9-x-9-9-x-9-9-x---6-6-x-6-6---6-6-x-6-6-|
D|-6-6-x-6-6---7-7-x-7-7---9-9-x-9-9-x-9-9-x-7-7-x---4-6-x-6-4---7-7-x-7-7-|
A|-4-4-x-4-4---7-7-x-7-7---7-7-x-7-7-x-7-7-x-7-7-x---4-4-x-4-4---7-7-x-7-7-|
e|-------------5-5-x-5-5-----------------------------------------5-5-x-5-5-|

a gets a me part
E|-----------------|
B|-----------------|
G|-9-9-x-9-9-x-9-9-|
D|-9-9-x-9-9-x-9-9-|
A|-7-7-x-7-7-x-7-7-|
e|-----------------|


Then play an stand A and E for the chorus
Then the second verse

X3 play till he sing "you know everything" then the next part

E|------------------------------------------------------------------------|
B|------------------------------------------------------------------------|
G|-9-9-x-9-9-x-9-9-x-9-9-x---6-6-x-6-6---6-6-x-6-6---9-9-x-9-9-x-9-9-x-9-9|
D|-9-9-x-9-9-x-9-9-x-7-7-x---6-6-x-6-6---7-7-x-7-7---9-9-x-9-9-x-9-9-x-9-9|
A|-7-7-x-7-7-x-7-7-x-7-7-x---4-4-x-4-4---7-7-x-7-7---7-7-x-7-7-x-7-7-x-7-7|
e|---------------------------------------5-5-x-5-5------------------------|

you will be able to figure this part out easily dont wory just alot of muting!! that 
follows now


E|---------------------------------------|
B|---------------------------------------|
G|-6-6-x-6-6-x-x-6-6-x-6-6---9-9-x-9-9-x-|
D|-6-6-x-6-6-x-x-7-7-x-7-7---9-9-x-9-9-x-|
A|-4-4-x-4-4-x-x-7-7-x-7-7---7-7-x-7-7-x-|
e|-----------x-x-5-5-x-5-5---------------|


Then comes another chorus just an A and E till solo still working on that
After the solo it's just A and E again till end!!

Really easy to play.
Very awesome song by Dance,You're on Fire!!
Sorry if its not very well layed out my first time ever tabing a song :)

Tinus Botha

http://www.google.co.za/url?sa=t&source=web&cd=1&ved=0CB4QFjAA&url=http%3A%2F%2F
www.myspace.com%2Fdanceyoureonfire&ei=vfcZToL_POSdmQXw3PkS&usg=AFQjCNEa1fzcC9YiHmCi3nRKvdUJTU_1Bw
Tap to rate this tab
 
# A B C D E F G H I J K L M N O P Q R S T U V W X Y Z