Song name
# A B C D E F G H I J K L M N O P Q R S T U V W X Y Z

Dance Yourself To Death - We Are All Made Of Stone tab

----------------------------------------------------------------------------
              DANCE YOURSELF TO DEATH - We Are All Made of Stone
----------------------------------------------------------------------------
Tabbed by: Super Emo Kid
Email: social_outcast_2@yahoo.com

Website: http://www.danceyourselftodeath.com/

Notes: Ok so this song changes each shape (i.e. verse, chorus) just a little
bit each time around, so this is kind of a play through type of tab.  It
goes pretty quick, in 4/4, so I gave time in eighth notes beneath the tab to
give you a feel for when strumming should happen.  Of course you can also
just pick it up by listening, it's pretty straightforward.
Feel free to email me with questions/comments.

INTRO
e|-----------------|-----------------|-----------------|-----------------|
B|-----------------|-----------------|-----------------|-----------------|
G|-----------------|-----------------|-----------------|-----------------|
D|-4-4-4-4-4-4-4-4-|-4-4-4-4-4-4-4-4-|-4-4-4-4-4-4-4-4-|-4-4-4-4-4-4-4-4-|
A|-----------------|-----------------|-----------------|-----------------|
E|-----------------|-----------------|-----------------|-----------------|
   1 + 2 + 3 + 4 +   1 + 2 + 3 + 4 +   1 + 2 + 3 + 4 +   1 + 2 + 3 + 4 +  

VERSE 1
e|-----------------|-----------------|-----------------|-----------------|
B|-----------------|-----------------|-----------------|-----------------|
G|-----------------|---------3-3-3-3-|-----------------|---------3-3-3-3-|
D|-4-4-4-4-4-4-4-4-|-4-4-4-4---------|-6-6-6-6-6-6-6-6-|-6-6-6-6---------|
A|-----------------|-----------------|-----------------|-----------------|
E|-----------------|-----------------|-----------------|-----------------|
   1 + 2 + 3 + 4 +   1 + 2 + 3 + 4 +   1 + 2 + 3 + 4 +   1 + 2 + 3 + 4 +  

e|-----------------|-----------------|-----------------|-----------------|
B|-----------------|-----------------|-----------------|-----------------|
G|-4-4-4-4-4-4-4-4-|-4-4-4-4-4-4-4-4-|-----------------|-----------------|
D|-----------------|-----------------|-4-4-4-4-4-4-4-4-|-4-4-4-4-4-4-4-4-|
A|-----------------|-----------------|-----------------|-----------------|
E|-----------------|-----------------|-----------------|-----------------|
   1 + 2 + 3 + 4 +   1 + 2 + 3 + 4 +   1 + 2 + 3 + 4 +   1 + 2 + 3 + 4 +  

e|-----------------|-----------------|-----------------|-----------------|
B|-----------------|-----------------|-----------------|-----------------|
G|-----------------|---------3-3-3-3-|-----------------|---------3-3-3-3-|
D|-4-4-4-4-4-4-4-4-|-4-4-4-4---------|-6-6-6-6-6-6-6-6-|-6-6-6-6---------|
A|-----------------|-----------------|-----------------|-----------------|
E|-----------------|-----------------|-----------------|-----------------|
   1 + 2 + 3 + 4 +   1 + 2 + 3 + 4 +   1 + 2 + 3 + 4 +   1 + 2 + 3 + 4 +  

e|-----------------|-----------------|-----------------|-----------------|
B|-----------------|-----------------|-----------------|-----------------|
G|-4-4-4-4-4-4-4-4-|-4-4-4-4-4-4-4-4-|-4-4-4-3-3-3-4-4-|-4-3-3-3-4-4-3-3-|
D|-----------------|-----------------|-----------------|-----------------|
A|-----------------|-----------------|-----------------|-----------------|
E|-----------------|-----------------|-----------------|-----------------|
   1 + 2 + 3 + 4 +   1 + 2 + 3 + 4 +   1 + 2 + 3 + 4 +   1 + 2 + 3 + 4 +  

PRE-CHORUS 1
e|-----------------|-----------------|-----------------|-----------------|
B|-----------------|-----------------|-----------------|-----------------|
G|-8-----8---------|-----------------|-6-----6---------|-----------------|
D|-8-----8---------|-----------------|-6-----6---------|-----------------|
A|-6-----6---------|-----------------|-8-----8---------|-----------------|
E|-----------------|-----------------|-----------------|-----------------|
   1 + 2 + 3 + 4 +   1 + 2 + 3 + 4 +   1 + 2 + 3 + 4 +   1 + 2 + 3 + 4 +  

e|-----------------|-----------------|-----------------|-----------------|
B|-----------------|-----------------|-----------------|-----------------|
G|-8-----8---------|-----------------|-6-----6-----6---|-----------------|
D|-8-----8---------|-----------------|-6-----6-----6---|-----------------|
A|-6-----6---------|-----------------|-8-----8-----8---|-----------------|
E|-----------------|-----------------|-----------------|-----------------|
   1 + 2 + 3 + 4 +   1 + 2 + 3 + 4 +   1 + 2 + 3 + 4 +   1 + 2 + 3 + 4 +  

e|-----------------|-----------------|-----------------|-----------------|
B|-----------------|-----------------|-----------------|-----------------|
G|-----------------|-4---------------|-----------------|-----------------|
D|-6---------------|-4---------------|-4---------------|-----------------|
A|-6---------------|-2---------------|-4---------------|-----------------|
E|-4---------------|-----------------|-2---------------|-----------------|
   1 + 2 + 3 + 4 +   1 + 2 + 3 + 4 +   1 + 2 + 3 + 4 +   1 + 2 + 3 + 4 +  

e|-----------------|-----------------|-----------------|-----------------|
B|-----------------|-----------------|-----------------|-----------------|
G|-----------------|-4---------------|-----------------|-----------------|
D|-6---------------|-4---------------|-4---------------|-----------------|
A|-6---------------|-2---------------|-4---------------|-----------------|
E|-4---------------|-----------------|-2---------------|-----------------|
   1 + 2 + 3 + 4 +   1 + 2 + 3 + 4 +   1 + 2 + 3 + 4 +   1 + 2 + 3 + 4 +  

VERSE 2
e|-----------------|-----------------|-----------------|-----------------|
B|-7-----5---------|-------------4---|-4-----5---------|-------------4---|
G|-6-----6---------|-------------4---|-4-----4---------|-------------4---|
D|-----------------|-----------------|-----------------|-----------------|
A|-----------------|-----------------|-----------------|-----------------|
E|-----------------|-----------------|-----------------|-----------------|
   1 + 2 + 3 + 4 +   1 + 2 + 3 + 4 +   1 + 2 + 3 + 4 +   1 + 2 + 3 + 4 +  

E|-----------------|-----------------|-----------------|-----------------|
B|-4-----5---------|-4-----5-----7---|-----------------|-----------------|
G|-4-----4---------|-4-----4-----6---|-----------------|-----------------|
D|-----------------|-----------------|-----------------|-----------------|
A|-----------------|-----------------|-----------------|-----------------|
E|-----------------|-----------------|-----------------|-----------------|
   1 + 2 + 3 + 4 +   1 + 2 + 3 + 4 +   1 + 2 + 3 + 4 +   1 + 2 + 3 + 4 +  

e|-----------------|-----------------|-----------------|-----------------|
B|-7-----5---------|-------------4---|-4-----5---------|-------------4---|
G|-6-----6---------|-------------4---|-4-----4---------|-------------4---|
D|-----------------|-----------------|-----------------|-----------------|
A|-----------------|-----------------|-----------------|-----------------|
E|-----------------|-----------------|-----------------|-----------------|
   1 + 2 + 3 + 4 +   1 + 2 + 3 + 4 +   1 + 2 + 3 + 4 +   1 + 2 + 3 + 4 +  

E|-----------------|-----------------|-----------------|-----------------|
B|-4-----5---------|-4-----5-----7---|-----------------|-----------------|
G|-4-----4---------|-4-----4-----6---|-----------------|-----------------|
D|-----------------|-----------------|-----------------|-----------------|
A|-----------------|-----------------|-----------------|-----------------|
E|-----------------|-----------------|-----------------|-----------------|
   1 + 2 + 3 + 4 +   1 + 2 + 3 + 4 +   1 + 2 + 3 + 4 +   1 + 2 + 3 + 4 +  

PRE-CHORUS 2
e|-----------------|-----------------|-----------------|-----------------|
B|-----------------|-----------------|-----------------|-----------------|
G|-8-----8---------|-----------------|-6-----6---------|-----------------|
D|-8-----8---------|-----------------|-6-----6---------|-----------------|
A|-6-----6---------|-----------------|-8-----8---------|-----------------|
E|-----------------|-----------------|-----------------|-----------------|
   1 + 2 + 3 + 4 +   1 + 2 + 3 + 4 +   1 + 2 + 3 + 4 +   1 + 2 + 3 + 4 +  

e|-----------------|-----------------|-----------------|-----------------|
B|-----------------|-----------------|-----------------|-----------------|
G|-8-----8---------|-----------------|-6-----6-----6---|-----------------|
D|-8-----8---------|-----------------|-6-----6-----6---|-----------------|
A|-6-----6---------|-----------------|-8-----8-----8---|-----------------|
E|-----------------|-----------------|-----------------|-----------------|
   1 + 2 + 3 + 4 +   1 + 2 + 3 + 4 +   1 + 2 + 3 + 4 +   1 + 2 + 3 + 4 +  

e|-----------------|-----------------|-----------------|-----------------|
B|-----------------|-----------------|-----------------|-----------------|
G|-----------------|-4---------------|-----------------|-----------------|
D|-6---------------|-4---------------|-4---------------|-----------------|
A|-6---------------|-2---------------|-4---------------|-----------------|
E|-4---------------|-----------------|-2---------------|-----------------|
   1 + 2 + 3 + 4 +   1 + 2 + 3 + 4 +   1 + 2 + 3 + 4 +   1 + 2 + 3 + 4 +  

e|-----------------|-----------------|-----------------|-----------------|
B|-----------------|-----------------|-----------------|-----------------|
G|-----------------|-4---------------|-----------------|-----------------|
D|-6---------------|-4---------------|-4---------------|-----------------|
A|-6---------------|-2---------------|-4---------------|-----------------|
E|-4---------------|-----------------|-2---------------|-----------------|
   1 + 2 + 3 + 4 +   1 + 2 + 3 + 4 +   1 + 2 + 3 + 4 +   1 + 2 + 3 + 4 +  

CHORUS 1
e|-----------------|-----------------|-----------------|-----------------|
B|-----------------|-----------------|-----------------|-----------------|
G|-8---------------|-11--------------|-----------------|-----------------|
D|-8---------------|-11--------------|-11--------------|---------8-------|
A|-6---------------|-9---------------|-11--------------|---------8-------|
E|-----------------|-----------------|-9---------------|---------6-------|
   1 + 2 + 3 + 4 +   1 + 2 + 3 + 4 +   1 + 2 + 3 + 4 +   1 + 2 + 3 + 4 +  

e|-----------------|-----------------|-----------------|-----------------|
B|-----------------|-----------------|-----------------|-----------------|
G|-8---------------|-----------------|-----------------|-----------------|
D|-8---------------|-9---------------|-11--------------|---------8-------|
A|-6---------------|-9---------------|-11--------------|---------8-------|
E|-----------------|-7---------------|-9---------------|---------6-------|
   1 + 2 + 3 + 4 +   1 + 2 + 3 + 4 +   1 + 2 + 3 + 4 +   1 + 2 + 3 + 4 +  

e|-----------------|-----------------|-----------------|-----------------|
B|-----------------|-----------------|-----------------|-----------------|
G|-8---------------|-----------------|-----------------|-----------------|
D|-8---------------|-9---------------|-11--------------|---------8-------|
A|-6---------------|-9---------------|-11--------------|---------8-------|
E|-----------------|-7---------------|-9---------------|---------6-------|
   1 + 2 + 3 + 4 +   1 + 2 + 3 + 4 +   1 + 2 + 3 + 4 +   1 + 2 + 3 + 4 +  

e|-----------------|-----------------|-----------------|-----------------|
B|-----------------|-----------------|-----------------|-----------------|
G|-----------------|-----------------|-----------------|-----------------|
D|-9---------------|-8---------------|-4---------------|-----------------|
A|-9---------------|-8---------------|-4---------------|-----------------|
E|-7---------------|-6---------------|-2---------------|-----------------|
   1 + 2 + 3 + 4 +   1 + 2 + 3 + 4 +   1 + 2 + 3 + 4 +   1 + 2 + 3 + 4 +  

VERSE 3
e|-----------------|-----------------|-----------------|-----------------|
B|-7-----5---------|-------------4---|-4-----5---------|-------------4---|
G|-6-----6---------|-------------4---|-4-----4---------|-------------4---|
D|-----------------|-----------------|-----------------|-----------------|
A|-----------------|-----------------|-----------------|-----------------|
E|-----------------|-----------------|-----------------|-----------------|
   1 + 2 + 3 + 4 +   1 + 2 + 3 + 4 +   1 + 2 + 3 + 4 +   1 + 2 + 3 + 4 +  

E|-----------------|-----------------|-----------------|-----------------|
B|-4-----5---------|-4-----5-----7---|-----------------|-----------------|
G|-4-----4---------|-4-----4-----6---|-----------------|-----------------|
D|-----------------|-----------------|-----------------|-----------------|
A|-----------------|-----------------|-----------------|-----------------|
E|-----------------|-----------------|-----------------|-----------------|
   1 + 2 + 3 + 4 +   1 + 2 + 3 + 4 +   1 + 2 + 3 + 4 +   1 + 2 + 3 + 4 +  

e|-----------------|-----------------|-----------------|-----------------|
B|-7-----5---------|-------------4---|-4-----5---------|-------------4---|
G|-6-----6---------|-------------4---|-4-----4---------|-------------4---|
D|-----------------|-----------------|-----------------|-----------------|
A|-----------------|-----------------|-----------------|-----------------|
E|-----------------|-----------------|-----------------|-----------------|
   1 + 2 + 3 + 4 +   1 + 2 + 3 + 4 +   1 + 2 + 3 + 4 +   1 + 2 + 3 + 4 +  

E|-----------------|-----------------|-----------------|-----------------|
B|-4-----5---------|-4-----5-----7---|-----------------|-----------------|
G|-4-----4---------|-4-----4-----6---|-----------------|-----------------|
D|-----------------|-----------------|-----------------|-----------------|
A|-----------------|-----------------|-----------------|-----------------|
E|-----------------|-----------------|-----------------|-----------------|
   1 + 2 + 3 + 4 +   1 + 2 + 3 + 4 +   1 + 2 + 3 + 4 +   1 + 2 + 3 + 4 +  


PRE-CHORUS 3
e|-----------------|-----------------|-----------------|-----------------|
B|-----------------|-----------------|-----------------|-----------------|
G|-8-----8---------|-----------------|-6-----6---------|-----------------|
D|-8-----8---------|-----------------|-6-----6---------|-----------------|
A|-6-----6---------|-----------------|-8-----8---------|-----------------|
E|-----------------|-----------------|-----------------|-----------------|
   1 + 2 + 3 + 4 +   1 + 2 + 3 + 4 +   1 + 2 + 3 + 4 +   1 + 2 + 3 + 4 +  

e|-----------------|-----------------|-----------------|-----------------|
B|-----------------|-----------------|-----------------|-----------------|
G|-8-----8---------|-----------------|-6-----6-----6---|-----------------|
D|-8-----8---------|-----------------|-6-----6-----6---|-----------------|
A|-6-----6---------|-----------------|-8-----8-----8---|-----------------|
E|-----------------|-----------------|-----------------|-----------------|
   1 + 2 + 3 + 4 +   1 + 2 + 3 + 4 +   1 + 2 + 3 + 4 +   1 + 2 + 3 + 4 +  

e|-----------------|-----------------|-----------------|-----------------|
B|-----------------|-----------------|-----------------|-----------------|
G|-----------------|-----------------|-----------------|-----------------|
D|-----------------|-----------------|-----------------|-----------------|
A|-----------------|-----------------|-----------------|-----------------|
E|-----------------|-----------------|-----------------|-----------------|
   1 + 2 + 3 + 4 +   1 + 2 + 3 + 4 +   1 + 2 + 3 + 4 +   1 + 2 + 3 + 4 +  

e|-----------------|-----------------|-----------------|-----------------|
B|-----------------|-----------------|-----------------|-----------------|
G|-----------------|-----------------|-----------------|-----------------|
D|-----------------|-----------------|-----------------|-----------------|
A|-----------------|-----------------|-----------------|-----------------|
E|-----------------|-----------------|-----------------|-----------------|
   1 + 2 + 3 + 4 +   1 + 2 + 3 + 4 +   1 + 2 + 3 + 4 +   1 + 2 + 3 + 4 +  

e|-4---------------|-2---------------|-2---------------|-----------------|
B|-4---------------|-4---------------|-2---------------|-----------------|
G|-4---------------|-4---------------|-3---------------|-----------------|
D|-6---------------|-4---------------|-4---------------|-----------------|
A|-6---------------|-2---------------|-4---------------|-----------------|
E|-4---------------|-----------------|-2---------------|-----------------|
   1 + 2 + 3 + 4 +   1 + 2 + 3 + 4 +   1 + 2 + 3 + 4 +   1 + 2 + 3 + 4 +  

e|-4---------------|-2---------------|-2---------------|-----------------|
B|-4---------------|-4---------------|-2---------------|-----------------|
G|-4---------------|-4---------------|-3---------------|-----------------|
D|-6---------------|-4---------------|-4---------------|-----------------|
A|-6---------------|-2---------------|-4---------------|-----------------|
E|-4---------------|-----------------|-2---------------|-----------------|
   1 + 2 + 3 + 4 +   1 + 2 + 3 + 4 +   1 + 2 + 3 + 4 +   1 + 2 + 3 + 4 +  

CHORUS 2
e|-----------------|-----------------|-----------------|-----------------|
B|-----------------|-----------------|-----------------|-----------------|
G|-8---------------|-11--------------|-----------------|-----------------|
D|-8---------------|-11--------------|-11--------------|---------8-------|
A|-6---------------|-9---------------|-11--------------|---------8-------|
E|-----------------|-----------------|-9---------------|---------6-------|
   1 + 2 + 3 + 4 +   1 + 2 + 3 + 4 +   1 + 2 + 3 + 4 +   1 + 2 + 3 + 4 +  

e|-----------------|-----------------|-----------------|-----------------|
B|-----------------|-----------------|-----------------|-----------------|
G|-8---------------|-----------------|-----------------|-----------------|
D|-8---------------|-9---------------|-11--------------|---------8-------|
A|-6---------------|-9---------------|-11--------------|---------8-------|
E|-----------------|-7---------------|-9---------------|---------6-------|
   1 + 2 + 3 + 4 +   1 + 2 + 3 + 4 +   1 + 2 + 3 + 4 +   1 + 2 + 3 + 4 +  

e|-----------------|-----------------|-----------------|-----------------|
B|-----------------|-----------------|-----------------|-----------------|
G|-8---------------|-----------------|-----------------|-----------------|
D|-8---------------|-9---------------|-11--------------|---------8-------|
A|-6---------------|-9---------------|-11--------------|---------8-------|
E|-----------------|-7---------------|-9---------------|---------6-------|
   1 + 2 + 3 + 4 +   1 + 2 + 3 + 4 +   1 + 2 + 3 + 4 +   1 + 2 + 3 + 4 +  

e|-----------------|-----------------|-----------------|-----------------|
B|-----------------|-----------------|-----------------|-----------------|
G|-----------------|-----------------|-----------------|-----------------|
D|-9---------------|-8---------------|-11--------------|-----------------|
A|-9---------------|-8---------------|-11--------------|-----------------|
E|-7---------------|-6---------------|-9---------------|-----------------|
   1 + 2 + 3 + 4 +   1 + 2 + 3 + 4 +   1 + 2 + 3 + 4 +   1 + 2 + 3 + 4 +  

CHORUS 3
e|-----------------|-----------------|-----------------|-----------------|
B|-----------------|-----------------|-----------------|-----------------|
G|-8---------------|-----------------|-----------------|-----------------|
D|-8---------------|-9---------------|-11--------------|---------8-------|
A|-6---------------|-9---------------|-11--------------|---------8-------|
E|-----------------|-7---------------|-9---------------|---------6-------|
   1 + 2 + 3 + 4 +   1 + 2 + 3 + 4 +   1 + 2 + 3 + 4 +   1 + 2 + 3 + 4 +  

e|-----------------|-----------------|-----------------|-----------------|
B|-----------------|-----------------|-----------------|-----------------|
G|-8---------------|-----------------|-----------------|-----------------|
D|-8---------------|-9---------------|-11--------------|---------8-------|
A|-6---------------|-9---------------|-11--------------|---------8-------|
E|-----------------|-7---------------|-9---------------|---------6-------|
   1 + 2 + 3 + 4 +   1 + 2 + 3 + 4 +   1 + 2 + 3 + 4 +   1 + 2 + 3 + 4 +  

e|-----------------|-----------------|-----------------|-----------------|
B|-----------------|-----------------|-----------------|-----------------|
G|-8---------------|-----------------|-----------------|-----------------|
D|-8---------------|-9---------------|-11--------------|---------8-------|
A|-6---------------|-9---------------|-11--------------|---------8-------|
E|-----------------|-7---------------|-9---------------|---------6-------|
   1 + 2 + 3 + 4 +   1 + 2 + 3 + 4 +   1 + 2 + 3 + 4 +   1 + 2 + 3 + 4 +  

e|-----------------|-----------------|-----------------|-----------------|
B|-----------------|-----------------|-----------------|-----------------|
G|-----------------|-----------------|-----------------|-----------------|
D|-9---------------|-8---------------|-11--------------|-----------------|
A|-9---------------|-8---------------|-11--------------|-----------------|
E|-7---------------|-6---------------|-9---------------|-----------------|
   1 + 2 + 3 + 4 +   1 + 2 + 3 + 4 +   1 + 2 + 3 + 4 +   1 + 2 + 3 + 4 +  

OUTRO
e|-----------------|-----------------|-----------------|-----------------|
B|-----------------|-----------------|-----------------|-----------------|
G|-----------------|-----------------|-----------------|-----------------|
D|-9---------------|-8---------------|-11--------------|-----------------|
A|-9---------------|-8---------------|-11--------------|-----------------|
E|-7---------------|-6---------------|-9---------------|-----------------|
   1 + 2 + 3 + 4 +   1 + 2 + 3 + 4 +   1 + 2 + 3 + 4 +   1 + 2 + 3 + 4 + 

e|-----------------|-----------------|-----------------|-----------------|
B|-----------------|-----------------|-----------------|-----------------|
G|-----------------|-----------------|-----------------|-----------------|
D|-9---------------|-8---------------|-11--------------|-----------------|
A|-9---------------|-8---------------|-11--------------|-----------------|
E|-7---------------|-6---------------|-9---------------|-----------------|
   1 + 2 + 3 + 4 +   1 + 2 + 3 + 4 +   1 + 2 + 3 + 4 +   1 + 2 + 3 + 4 + 

e|-----------------|-----------------|-----------------|-----------------|
B|-----------------|-----------------|-----------------|-----------------|
G|-----------------|-----------------|-----------------|-----------------|
D|-9---------------|-8---------------|-11--------------|-----------------|
A|-9---------------|-8---------------|-11--------------|-----------------|
E|-7---------------|-6---------------|-9---------------|-----------------|
   1 + 2 + 3 + 4 +   1 + 2 + 3 + 4 +   1 + 2 + 3 + 4 +   1 + 2 + 3 + 4 + 

===========================================================================

VERSE 1
Caught me off guard yesterday
Who was I to say you'd be back again
Rules're what were why the stakes were raised
Oh what a shame

PRE-CHORUS 1
Get a little bit angry
Get a little bit mean
Act a little bit unlike what you've seen
And you said and you gave me this song
Cause we are all made of stone

VERSE 2
Consequence of following your heart
Scared you off, want you to turn around
Selling sadness like it was gold
Rolling it up, stacking it up, cashing it in

PRE-CHORUS 2
And you said to me "Lady,"
"Is this the end of your lifelong?"
"What you got to show for all the things turned out so very wrong?"
At the end of the world
Cause we are all made of stone

CHORUS 1
And you said "And you sang me this song"
You said "You don't know her like I do"
Don't believe you're no good when I insist that 
We are all made of stone

VERSE 3
Test for vengeance left in me
Can't let, just can't let it go
Why don't you make it an even three
If you can't use me it may hurt you so

PRE-CHORUS 3
Your temperature rises
And your pulse races
Trying not to ring alarm across your guilty face
At the end of the world
We are all made of stone

CHORUS 2
And you said "And you sang me this song."
You said "You don't know her like I do."
Don't believe you're no good when I insist that 
We are all made of stone

CHORUS 3
Are you ready for love
Should I say ready for another broken heart
I don't care if you don't really love me
As long as you blow me a kiss

OUTRO
Cause we are all made of stone
We are all made of stone
We are all made of stone

============================================================================
Tap to rate this tab
# A B C D E F G H I J K L M N O P Q R S T U V W X Y Z