Song name
# A B C D E F G H I J K L M N O P Q R S T U V W X Y Z

Dandy Warhols - Plan A tab

DANDY WARHOLS
"PLAN A"
  -Welcome To The Monkey House
tabbed by: Keven Williums


this is the intro to Plan A by the Dandy Warhols, and actually for the most part this is 
whole song......

Standard Tuning


(pluck notes)
  D        F       C       G

e--2-------1-------0-------3-------|
b----3-------1-------1-------3-----|
g------2-------2-------0-------0---|
d--0-------3-----------------------|
a------------------3---------------|
E--------------------------3-------|


then a little further into the intro guitar 2 plays over progression:

e--------------------------------------|
b--8^(10)^8p7---------6^(8)^6p5--------|
g-------------7~~~--------------5~~~---|
d--------------------------------------|
a--------------------------------------|
E--------------------------------------|
Tap to rate this tab
 
# A B C D E F G H I J K L M N O P Q R S T U V W X Y Z