Song name
# A B C D E F G H I J K L M N O P Q R S T U V W X Y Z

Dandy Warhols - Head tab

E --------------------------------------------------------------------------|
B --------------------------------------------------------------------------|
G --------------------------------------------------------------------------|
D --------------------------------------------------------------------------|
A -2-2p0-2-2h4-2h4-2--0-2---2---0--4---0-0h1--4/5/4/5/4---------------------|
E -------------------2----2---2------2--------------------------------------|

verse

E -2----0----2--------------------------------------------------------------|
B -4----2----2--------------------------------------------------------------|
G -4----2----3--------------------------------------------------------------|
D -4-x8-2-x8-4-x16----------------------------------------------------------|
A -2----0----4--------------------------------------------------------------|
E -2----0----2--------------------------------------------------------------|
Tap to rate this tab
 
# A B C D E F G H I J K L M N O P Q R S T U V W X Y Z