Song name
# A B C D E F G H I J K L M N O P Q R S T U V W X Y Z

Dandy Warhols - Now You Love Me tab

Help us improve GuitareTab! Take a short survey!
Highlighted       Show chord diagrams
NOW YOU LOVE ME
===============
Author: The Dandy Warhols
Album: ...Earth to the Dandy Warhols...
Track: 7

---------------------------------------
Tabs by: jcb142@hotmail.com
Date: 12/29/2008
---------------------------------------


This is how I play this song:

Intro:

 Em Em 
--7--7-
--8--8-
--9--9-
--9--9-
--7--7-
--7--7-

And then he starts to sing...

    Em    Em    Em    Em    D     D     A     A
-x--7--x--7--x--7--x--7--x--5--x--5--x--5--x--5
-x--8--x--8--x--8--x--8--x--7--x--7--x--5--x--5
-x--9--x--9--x--9--x--9--x--7--x--7--x--6--x--6
-x--9--x--9--x--9--x--9--x--7--x--7--x--7--x--7
-x--7--x--7--x--7--x--7--x--5--x--5--x--7--x--7
-x--7--x--7--x--7--x--7--x--5--x--5--x--5--x--5

The rithm changes along the song, but the chords are the same (I think)
Related for Now You Love Me tab