Song name
# A B C D E F G H I J K L M N O P Q R S T U V W X Y Z

Dandy Warhols - Beast Of All Saints tab

Help us improve GuitareTab! Take a short survey!
Artist:The Dandy Warhols
Song:Beast Of All Saints
Album:Earth to The Dandy Warhols



Standard Tuning 


Chords Progression For The Beginning 0:00-1:35

After that just strum the chords naturally for the rest of the song.


          Dm         C             G         Dm
e|----------1-------------0------------3----------1--------------------------|
B|-------------3-------------1----------3---------3--------------------------|
G|---------------------------------------------------------------------------|
D|---0--------------------------------------0--------------------------------|
A|------------------3--------------------------------------------------------|
E|--------------------------------3------------------------------------------|

background riff. 1:42-Throughout the rest of the song.

e|---------------------------------------------------------------------------|
B|---------------------------------------------------------------------------|
G|---------------------------------------------------------------------------|
D|---------------------------------------------------------------------------|
A|------5~~~~~~~~~~~3~~~~~~~~~~----------1~~~~~~~~~~-------------------------|
E|-----------------------------3~~~~~~~~~------------------------------------|

e|---------------------------------------------------------------------------|
B|---------------------------------------------------------------------------|
G|---------------------------------------------------------------------------|
D|---------------------------------------------------------------------------|
A|------5~~~~~~~~~~~3~~~~~~~~~~----------1~~~~~~~~~~--2/3/4------------------|
E|-----------------------------3~~~~~~~~~------------------------------------|

e|---------------------------------------------------------------------------|
B|---------------------------------------------------------------------------|
G|---------------------------------------------------------------------------|
D|---------------------------------------------------------------------------|
A|------5~~~~~~~~~~~3~~~~~~~~~~----------1~~~~~~~~~~-------------------------|
E|-----------------------------3~~~~~~~~~------------------------------------|


e|---------------------------------------------------------------------------|
B|---------------------------------------------------------------------------|
G|---------------------------------------------------------------------------|
D|---------------------------------------------------------------------------|
A|------5~~~~~~~~~~~3~~~~~~~~~~----------1~~~~~~~~~~--10/9/8/7---------------|
E|-----------------------------3~~~~~~~~~------------------------------------|

Sweet, thanks.
Related for Beast Of All Saints tab