Song name
# A B C D E F G H I J K L M N O P Q R S T U V W X Y Z

Dandy Warhols - Welcome To The Monkey House tab

Tabbed by: Hannah T

Tuning: standard - eBGDAE

NOTE: the song starts off with a palm mute, but by the end, you can actually hear the 
chords. this tab shows the chords w/o the palm mute. when playing, keep on playing a 
beat with the power chords.

    Wire's coming back again, Elastica got sued by then...
e|-------------------------------------------------------------------------|
B|-------------------------------------------------------------------------|
G|-----------------------------7-------------------------------------------|
D|---7-------------2-----------7-----------7-------------------------------|
A|---7-------------2-----------5-----------7-------------------------------|
E|---5-------------0-----------------------5-------------------------------|

When Michael J. dies, we're covering Blackbird.
e|-------------------------------------------------------------------------|
B|-------------------------------------------------------------------------|
G|-------------------------------------------------------------------------|
D|---7-------------2-----------------5-----------7-------------------------|
A|---7-------------2-----------------5-----------7-------------------------|
E|---5-------------0-----------------3-----------5-------------------------|

keep alternating these two riffs for the rest of the song.

LYRICS:
Wire's coming back again.
Elastica got sued by then.
When Michael Jackson dies,
we're covering Blackbird.

But won't it be absurd, then,
when no one knows what song they just heard,
unless someone on the radio
tells them first?

So come on, come on, come on, come.
Come on, come on, come on, come on.
Come on, come on, come on,
you monkeys.
Tap to rate this tab
 
# A B C D E F G H I J K L M N O P Q R S T U V W X Y Z