Dandy Warhols - Ride tab

Intro:
Guitar 1 (intro) *0:05*
e -------0--0-0--3/5--5-5--5--5--5--5---|
B -------0--0-0--3/5--5-5--5--5--5--5---|
G -------1--1-1--4/6--6-6--6--6--6--6---|
D -------2--2-2--5/7--7-7--7--7--7--7---|
A -<5>---2--2-2--5/7--7-7--7--7--7--7---|
E -------0--0-0--3/5--5-5--5--5--5--5---|

Guitar 2 *after Guitar 1* (intro, verse) *0:10*
D --2--2-2--5/7--7-7--7--7--7--7---|
A --2--2-2--5/7--7-7--7--7--7--7---|
E --0--0-0--3/5--5-5--5--5--5--5---|

Guitar 1 *solo pt. 1 - try some vibratos and bends* *0:14*
e -------------------------------------------|
B -12-12-12-12-12-12-12-10-10---10-10---10---|
G ----------------------------9-------9----9-|
D -------------------------------------------|
A -------------------------------------------|
E -------------------------------------------| x3

Guitar 1 *solo pt.2* *0:31*
e ----------------------------------------------------|
B -8---8---7---7------------8-8---8---7---7-----------|
G ---9---9---7---7-6-7-9-9------9---9---7---7-6-7-9-9-|
D ----------------------------------------------------|
A ----------------------------------------------------|
E ----------------------------------------------------|

Guitar 2 *when Guitar 1 play solo pt. 2*
D --5--5/12-12\7--7-7--7--7--7---|
A --5--5/12-12\7--7-7--7--7--7---|
E --3--3/10-10\5--5-5--5--5--5---| x2

Guitar 1 *other solo - wah* *2:44*
e --------------------------------------------------|
B -12-14-15-17--12-14-15-17--12-10-12-10-12-10-12-10|
G --------------------------------------------------|
D --------------------------------------------------|
A --------------------------------------------------|
E --------------------------------------------------| x2

*last part of solo - idk how to play this*
e ----------------------------------------------------|
B -8---8---7---7------------8-8---8---7---7-----------|
G ---9---9---7---7-6-7-9-9------9---9---7---7-6-7-9-9-|
D ----------------------------------------------------|
A ----------------------------------------------------|
E ----------------------------------------------------|

Ear-transcribed.
Tap to rate this tab
 
# A B C D E F G H I J K L M N O P Q R S T U V W X Y Z