Song name
# A B C D E F G H I J K L M N O P Q R S T U V W X Y Z

Dandy Warhols - Bohemian Like You tab

-------------------------------------------------------------------------------
			     Bohemian Like You - The Dandy Warhols
-------------------------------------------------------------------------------
Tabbed by: Josh Herrington
Email: josholosh@hotmail.co.uk

Tuning: Drop D (DADGBe)

I wrote this tab just to make a few corrections from previous tabs.
 The song would be in standard tuning if it weren't for the E chord
 during the intro/bridge riffs, where you have to hit that low open D
 or the chord just sounds messed up.

Intro

e|---------------2--2-3--2-3-------------------------------------------------|
B|-4--4-5--4-5---3--3-3--3-3---2--2-3--2-3-----------------------------------|
G|-4--4-4--4-4---2--2-2--2-2---2--2-2--2-2---1-1-1-1---1-1-1-1---------------| Play this twice
D|-4--4-4--4-4---0--0-0--0-0---2--2-2--2-2---2-2-2-2---2-2-2-2---------------|
A|-2--2-2--2-2-------------------------------2-2-2-2---2-2-2-2---------------|
D|-------------------------------------------0-2-2-2---0-2-2-2---------------|

Pre-verse

e|---------------------------------------------------------------------------|
B|---------------------------------------------------------------------------|
G|-4-4-4-4-4-4---4-4-4-4-4-4---4-4-4-4-4-4---4-4-4-4-4-4-4-4-4---------------|
D|-4-4-4-4-4-4---4-4-4-4-4-4---4-4-4-4-4-4---4-4-4-4-4-4-4-4-4---------------|
A|-0-2-2-2-2-2---0-2-2-2-2-2---0-2-2-2-2-2---0-2-2-2-2-2-2-2-2---------------|
D|---------------------------------------------------------------------------|

                                                ^*On the third time this riff is played 
the song, abruptly stop here

Verse/chorus -
the first chord in the verse rolls straight on from the pre-verse;
 there is no pause. This part starts as soon as he says 'car' in
the first line, the singing starts towards the end of the pre-verse.

e|------------------2-2-2-2-2-2-2-2------------------------------------------|
B|-4-4-4-4-4-4-4-4--3-3-3-3-3-3-3-3--2-2-2-2-2-2-2-2-------------------------|
G|-4-4-4-4-4-4-4-4--2-2-2-2-2-2-2-2--2-2-2-2-2-2-2-2--1-1-1-1-1-1-1-1--------| Play this twice
D|-4-4-4-4-4-4-4-4--0-0-0-0-0-0-0-0--2-2-2-2-2-2-2-2--2-2-2-2-2-2-2-2--------|
A|-2-2-2-2-2-2-2-2------------------------------------2-2-2-2-2-2-2-2--------|
D|----------------------------------------------------2-2-2-2-2-2-2-2--------|

Intro x2
Pre-verse
Verse x2 (You've got a great car...)
Pre-verse
Verse x4 (So what do you do?...)
Intro x2
Pre-verse*
(Who's that guy, just hangin' at your pad...)
Verse x6('Cause I like you...)
Intro x2
Tap to rate this tab
# A B C D E F G H I J K L M N O P Q R S T U V W X Y Z