Song name
# A B C D E F G H I J K L M N O P Q R S T U V W X Y Z

Dandy Warhols - This Is The Tide tab

Song riff

-|-------------------------------------|
-|-------------------------------------|
-|-------------------7/9-9-9-9-9-7-7-7-|
-|-5/9-9-9-9-9-7-7-7-7/9-9-9-9-9-7-7-7-|
-|-5/9-9-9-9-9-7-7-7-5/7-7-7-7-7-5-5-5-|
-|-3/7-7-7-7-7-5-5-5-------------------|

-|--------------------------------------|
-|--------------------------------------|
-|-----------------9-9-9-9-9-9-7-7-7-7--|
-|-5-5-5-5-5-7-7-7-9-9-9-9-9-9-7-7-7-7--|
-|-5-5-5-5-5-7-7-7-7-7-7-7-7-7-5-5-5-5--|
-|-3-3-3-3-3-5-5-5----------------------|

by my ear...
Tap to rate this tab
 
# A B C D E F G H I J K L M N O P Q R S T U V W X Y Z