Song name
# A B C D E F G H I J K L M N O P Q R S T U V W X Y Z

Dandy Warhols - Solid tab

Solid

D A N D Y   W A R H O L S

Tabbed By Aaron Bridgeman (rokken@sicness.net)


http://bogans.arecool.net

INTRO:
e|-17----17--17-17--17--17--14---14---14---|
B|-----------------------------------------|
G|-----------------------------------------|
D|-----------------------------------------|
A|-----------------------------------------|
E|-----------------------------------------|

INTRO RHYTHM:
e|-2--2---2-2---2-2---3--3--3--|
B|-3--3---3-3---3-3---0--0--0--|
G|-2--2---2-2---2-2---0--0--0--|
D|-0--0---0-0---0-0---0--0--0--|
A|--------------------x--x--x--|
E|--------------------3--3--3--|

VERSE:
e|-0----0----3-----2--2---2-2---2-2---3--3--3--|
B|-2----1----0-----3--3---3-3---3-3---0--0--0--|
G|-2----0----0-----2--2---2-2---2-2---0--0--0--|
D|-2----2----0-----0--0---0-0---0-0---0--0--0--|
A|-0----3----x------------------------x--x--x--|
E|-----------3------------------------3--3--3--|

CHORUS: SAME AS INTRO

That's it! Easy, huh?
Tap to rate this tab
# A B C D E F G H I J K L M N O P Q R S T U V W X Y Z