Song name
# A B C D E F G H I J K L M N O P Q R S T U V W X Y Z

Dandy Warhols - Country Leaver tab

ok this song is a little strange but awsome. Its probably played with a steel guitar but
just use a slide with my acoustic guitar, and put it in an open G tuning. If your lazy
dont have to change the tunning becuase the chords still sound the same in regular 
just not as twangy.

The chords
     G    A#   C    D    F     G
D----0----3----5----7----10----12--------------------------------------------------------|
B----0----3----5----7----10----12--------------------------------------------------------|
G----0----3----5----7----10----12--------------------------------------------------------|
D----0----3----5----7----10----12--------------------------------------------------------|
G----0----3----5----7----10----12--------------------------------------------------------|
D----0----3----5----7----10----12--------------------------------------------------------|

Intro
D---0--3/5--3/5--3/5--3/5--3/5/3--0--/12-------------------------------------|
B---0--3/5--3/5--3/5--3/5--3/5/3--0--/12-------------------------------------|
G---0--3/5--3/5--3/5--3/5--3/5/3--0--/12-------------------------------------|
D---0--3/5--3/5--3/5--3/5--3/5/3--0--/12-------------------------------------|
G---0--3/5--3/5--3/5--3/5--3/5/3--0--/12-------------------------------------|
D---0--3/5--3/5--3/5--3/5--3/5/3--0--/12-------------------------------------|

2nd guitar intro
D----------------------------------------------------------------------------|
B--6-8--6-6-8--6-3--6-3--8-6-3-----------------------------------------------|
G------------------------------5-3-------------------------------------------|
D----------------------------------5-----------------------------------------|
G----------------------------------------------------------------------------|
D----------------------------------------------------------------------------|

G                                          C
Well im going to see you soon in amsterdamn
G                                    C
I cant Believe i can get there but i can man
D                                C                   G
I hope when i see you that your still liking who i am  i am
D                         C                       F
but if you dont baby well i'll still tell ya that
C
i understand, and ill tell you
F     C                G
I I I I undertsand, and ill tell you
F     C                G
I I I I understand, and ill tell you
F F C C  G
I

Solo

D----------------------------------------------------------------------------|
B--3-6--3-6--3-6-8--3-6--3---------3---3---3---------------------------------|
G--------------------------5-3-5-3---3---3---3-3-----------------------------|
D----------------------------------------------------------------------------|
G----------------------------------------------------------------------------|
D----------------------------------------------------------------------------|

D----------------------------------------------------------------------------|
B--3-6--3-6--3-6-8--3-6--3-------3-6/8p6-10h12p10/15--19-19-17-19-20---------|
G--------------------------5-3-5---------------------------------------------|
D----------------------------------------------------------------------------|
G----------------------------------------------------------------------------|
D----------------------------------------------------------------------------|

D----------------------------------------------------------------------------|
B--15-12----------------12-15-12--------8------------------------------------|
G--------12--/12----12--------------7h9--------------------------------------|
D-----------------12--12---------7h9-----------------------------------------|
G----------------------------------------------------------------------------|
D----------------------------------------------------------------------------|
Tap to rate this tab
# A B C D E F G H I J K L M N O P Q R S T U V W X Y Z