Song name
# A B C D E F G H I J K L M N O P Q R S T U V W X Y Z

Dandy Warhols - Cool As Kim Deal tab

Intro/Verse:

Hey.
There's nothing in my art.
I'd rather be cool than be smart...
-----------------------------------|
---------7------9------7-----------|
--6------7------9------7-----------|
--7------7------9------7-----------|
--7------5------7------5-----------|
--5--------------------------------| repeat

Here's what I feel,
ba ba ba ba.
Just want a girl 
as cool as Kim Deal...
-----------------------------------|
--7--9--7--9--7--------------------|
--7--9--7--9--7--6--5--4-----------|
--7--9--7--9--7--7--6--5-----------|
--5--7--5--7--5--7--6--5-----------|
-----------------5--4--3-----------|
Tap to rate this tab
# A B C D E F G H I J K L M N O P Q R S T U V W X Y Z