Song name
# A B C D E F G H I J K L M N O P Q R S T U V W X Y Z

Dandy Warhols - Every Day Should Be A Holiday tab

Help us improve GuitareTab! Take a short survey!
[CODE]
-------------------------------------------------------------------------------
	       Everyday Should Be a Holiday - Dandy Warhols
-------------------------------------------------------------------------------

Tuning: Standard

Intro:
   E                                    Esus
e|---------------------------------------------|
B|-9-9-9-9-9-9-9-9-9-9-9-9-9-9-9-9-9-9-10-10---|
G|-9-9-9-9-9-9-9-9-9-9-9-9-9-9-9-9-9-9--9--9---|
D|-9-9-9-9-9-9-9-9-9-9-9-9-9-9-9-9-9-9--9--9---|
A|-7-7-7-7-7-7-7-7-7-7-7-7-7-7-7-7-7-7--7--7---|
E|---------------------------------------------|

Main Riff:
e|---------------------------------------------------------------------------------|
B|---------------------------------------------------------------12-13-12----------|
G|---12-13-12-------12-13-12-13-12--------------12-13-12----12-13---------12-13----|
D|-14---------14--14---------------14-12-14--14----------14--------------------14--|
A|---------------------------------------------------------------------------------|
E|---------------------------------------------------------------------------------|

e|---------------------------------------------------------------------------------|
B|---------------------------------------------------------------------------------|
G|---12-13-12------12-13-12-13-12----------------------------12-13-12-13-12-13-12--|
D|-14---------14-14---------------14-12-14--14-12-14-14-12-14--------------------14|
A|---------------------------------------------------------------------------------|
E|---------------------------------------------------------------------------------|

Verse:
   E                                    Esus
e|---------------------------------------------|
B|-9-9-9-9-9-9-9-9-9-9-9-9-9-9-9-9-9-9-10-10---|
G|-9-9-9-9-9-9-9-9-9-9-9-9-9-9-9-9-9-9--9--9---|
D|-9-9-9-9-9-9-9-9-9-9-9-9-9-9-9-9-9-9--9--9---|
A|-7-7-7-7-7-7-7-7-7-7-7-7-7-7-7-7-7-7--7--7---|
E|---------------------------------------------|
   Summertime, if I was getting paid

Chorus: 
         B             D              E 
e|---------------------------------------------------------|
B|-----4-4-4-4-4-------7-7-7-7-7------9-9-9-9-9-9-9-9-9-9--|
G|-----4-4-4-4-4-------7-7-7-7-7------9-9-9-9-9-9-9-9-9-9--|
D|-----4-4-4-4-4-------7-7-7-7-7------9-9-9-9-9-9-9-9-9-9--|
A|-----2-2-2-2-2-------5-5-5-5-5------7-7-7-7-7-7-7-7-7-7--|
E|---------------------------------------------------------|
  Anytime
         B             D             c#5              B  
e|----------------------------------------------------------------------------|
B|-------4-4-4-4-4-----7-7-7-7-7----------------------4-4-4-4-4-4-4-4---------|
G|-------4-4-4-4-4-----7-7-7-7-7-----6-6-6-6-6-6-6-6--4-4-4-4-4-4-4-4---------|
D|-------4-4-4-4-4-----7-7-7-7-7-----6-6-6-6-6-6-6-6--4-4-4-4-4-4-4-4---------|
A|-------2-2-2-2-2-----5-5-5-5-5-----4-4-4-4-4-4-4-4--2-2-2-2-2-2-2-2---------|
E|----------------------------------------------------------------------------|
         Everyday                     should be a holiday.

Alternate Riff:
e|----------------------------------------------------------------------------------------|
B|----------------------------------------------------------------------------------------|
G|---12-13-12-------12-13-12-13-12--------------12-13-12-------12-13-12-13-12-------------|
D|-14---------14--14---------------14-12-14---14---------14--14---------------14-12-14----|
A|----------------------------------------------------------------------------------------|
E|----------------------------------------------------------------------------------------|

e|---------------------------------------------------------|
B|---------------------------------------------------------|
G|---------------------------------------------------------|
D|-14-12-14--14-12-14--14-12-14--14-12-14------------------|
A|---------------------------------------------------------|
E|---------------------------------------------------------|

Alternative Riff 2:
e|---------------------------------------------------------|
B|---------------------------------------------------------|
G|---------------------------12~---------------------------|
D|-14--12-14-12-14--12-14-12-------------------------------|
A|---------------------------------------------------------|
E|---------------------------------------------------------|

Verse
Chorus
Main Riff
Verse
Chorus
Alternate Riff
Chorus
Alternate Riff 2
Chorus
Main Riff

| /  slide up
| \  slide down
| h  hammer-on
| p  pull-off
| ~  vibrato
| +  harmonic
| x  Mute note
===============================================================================
[/CODE] 
Related for Every Day Should Be A Holiday tab