Song name
# A B C D E F G H I J K L M N O P Q R S T U V W X Y Z

Dandy Warhols - Bohemien Like You tab

intro

|-----------2-2-3-3-2-----------4-4-5-5-4-4-5-5-|
|-4-4-5-5-4-3-3-3-3-3-2-2-3-3-2-5-5-5-5-5-5-5-5-|
|-4-4-4-4-4-2-2-2-2-2-2-2-2-2-2-4-4-4-4-4-4-4-4-|
|-4-4-4-4-4-----------2-2-2-2-2-----------------|
|-----------------------------------------------|
|-----------------------------------------------|

|-------|
|-------|
|-1-1-1-|
|-2-2-2-|
|-2-2-2-|
|-0-0-0-|

Riff

|-----------------------------------------------------------------|
|-----------------------------------------------------------------|
|-----------------7-7-7-7-7-7-7-7-----------------9-9-9-9-9-9-9-9-|
|-9-9-9-9-9-9-9-9-7-7-7-7-7-7-7-7-7-7-7-7-7-7-7-7-9-9-9-9-9-9-9-9-|
|-9-9-9-9-9-9-9-9-5-5-5-5-5-5-5-5-7-7-7-7-7-7-7-7-7-7-7-7-7-7-7-7-|
|-7-7-7-7-7-7-7-7-----------------5-5-5-5-5-5-5-5-----------------|


There you go! you'll want to listen to the song to get the order and the timing.
Tap to rate this tab
# A B C D E F G H I J K L M N O P Q R S T U V W X Y Z