Song name
# A B C D E F G H I J K L M N O P Q R S T U V W X Y Z

Dandy Warhols - The Wreck Of The Edmund Fitzgerald tab

Help us improve GuitareTab! Take a short survey!
Highlighted       Show chord diagrams
Cover of the old gordon lightfoot song, on the dandy's cum on feel the dandy 
album.

Chords
     E    Bm   D    A
E----0----2----2----0-------------------------------------------------------|
B----0----3----3----2-------------------------------------------------------|
G----1----4----2----2-------------------------------------------------------|
D----2----4----0----2-------------------------------------------------------|
A ---2----2----0----0-------------------------------------------------------|
E----0----2----x----0-------------------------------------------------------|

E                            Bm
The legend lives on from the chippewa on down
       D        A                  E
Of the big lake they called gitche gumee
E                            Bm
The lake, it is said, never gives up her dead
        D         A             E
When the skies of november turn gloomy
E                                  Bm
With a load of iron ore twenty-six thousand tons more
         D        A                E
Than the edmund fitzgerald weighed empty.
E                             Bm
That good ship and crew was a bone to be chewed
         D        A              E
When the gales of november came early.

Bridge progression
     Bm   D    E    E   E
E----2----2----0----0---0----------------------------------------------------|
B----3----3----0----0---0----------------------------------------------------|
G----4----2----1----1h2-1----------------------------------------------------|
D----4-x7-0-x1-2-x6-2---2----------------------------------------------------|
A----2----0----2----2---2----------------------------------------------------|
E----2----x----0----0---0----------------------------------------------------|
Related for The Wreck Of The Edmund Fitzgerald tab