Song name
# A B C D E F G H I J K L M N O P Q R S T U V W X Y Z

Dandy Warhols - The Dandy Warhols Love Almost Everyone tab

Dandy Warhols
The Dandy Warhols Love Almost Everyone
Welcome To The Monkey House

standard tuning

best song on album...

Intro
fade in
|-------------------------|-----------------|
|-------------------------|-----------------|
|-------------------------|-----------------|
|---9---7------------h7h9-|---9---7---------|
|-9---9---9---7-9-7-9-----|-9---9---9---7-9-|
|-----------0-------------|-----------0-----|

Intro pt2
Guitar
|-------------------------||-------------------------|
|-------------------------||-------------------------|
|-------------------------||-------------------------|
|---9---7------------h7h9-||---9---7------------h7h9-|
|-9---9---9---7-9-7-9-----||-9---9---9---7-9-7-9-----|
|-----------0-------------||-----------0-------------|x2

Keyboard
|----------------------------------------------------|
|----12~----10~--10-9-10-9-----12~----10~--10-9-10-9-|
|-11-----11-----------------11-----11----------------|
|----------------------------------------------------|
|----------------------------------------------------|
|----------------------------------------------------|

|-----------------------------------|
|-----------------------------------|
|-9~-9-9--/13--\11--/16~---16-14-16~|
|-----------------------------------|
|-----------------------------------|
|-----------------------------------|

Verse
Bass
|--------------------------------------------------------------------|
|--------------------------------------------------------------------|
|----------------0h2p0---------------0h2p0----5--57--79--9-----------|
|-7--75--50--2--2-----7--75--50--2--2-----7--7------------7~--/5--\7-|

Guitar
|-----------------------------------------------------------|
|-----------------------------------------------------------|
|-----7--x9--x11------7--x9--x-------7--x9--x11-------------|
|-9--x7--x9--x11--9--x7--x9--x7--9--x7--x9--x11--9~--7~--9~-|
|-9--x5--x7--x9---9--x5--x7--x7--9--x5--x7--x9---9~--7~--9~-|
|-7--x------------7--x--------5--7--x------------7~--5~--7~-|

Chorus

same,
so is rest but with slight variations

LYRICS

(love me)

excercisin' your frustration

unconditionally (love me)

if i need some salvation

i am the only one

baby baby, a your my nation

honey your my story

now you got the information

i am the holy one

excercisin' your frustration

unconditionally (love me)

if i need some salvation

i am the only one

(love me)

(love me)

ARMS ARE FOR HUGGING THE DANDY WARHOLS
Tap to rate this tab
 
# A B C D E F G H I J K L M N O P Q R S T U V W X Y Z