Guitaretab - guitar tabs
Song name
# A B C D E F G H I J K L M N O P Q R S T U V W X Y Z

Dane Cook - Ill Never Be You Acoustic tab

This is the Acoustic Version!

Standard tuning: EADGBe

Intro:

  E5                G#*              A*               F#*
e|-----------------|----------------|----------------|----------------|
B|-----------------|----------------|----------------|----------------|
G|-----------------|----------------|----------------|----------------|
D|-----------------|----------------|----------------|----------------|
A|---------2-------|--------3-------|--------4-------|--------1-------|
E|0---0--------0---|4---4-------4---|5---5-------5---|2---2-------2---|

|----------------|----------------|----------------|----------------|
|----------------|----------------|----------------|----------------|
|----------------|----------------|----------------|----------------|
|----------------|----------------|----------------|----------------|
|--------2-------|--------3-------|4---4---x-x-x-1-|----1---1-1-1-1-|
|0---0-------0---|4---4-------4---|5---5---x-x-x-2-|----2---2-2-2-2-|

|----------------|----------------|----------------|----------------|
|----------------|----------------|----------------|----------------|
|----------------|----------------|----------------|----------------|
|----------------|----------------|----------------|----------------|
|--------2-------|--------3-------|--------4-------|--------1-------|
|0---0-------0---|4---4-------4---|5---5-------5---|2---2-------2---|

|----------------|----------------|---
|----------------|----------------|---
|----------------|----------------|---
|----------------|----------------|---
|--------2-------|--------3-------|4\-
|0---0-------0---|4---4-------4---|5\-

Verses 1-4:

E5:  02xxxx
G#*: 43xxxx
A*:  54xxxx
F#*: 21xxxx

The chords are mostly picked out like the intro but sometimes he strums them as two-note chords.

E5      G#*     A*       F#*       E5
 You are the one everyone wants to be.
     G#*     A*         F#*                  E5
 I am the one they say, ďIím glad thatís not me.Ē
       G#*    A*      F#*         E5
 When I go to sleep I dream about you.
         G#*    A*            F#*              E5.ÖÖ 
 When you go to sleep I be you dream about you tooÖ.. 

E:     022100
Evii:  07999x
G#:    466544
A:     577655
G:     355455
F#:    244322

                E
Öred, white and blue.
[ Tab from: http://www.guitaretab.com/d/dane-cook/185027.html ]
Evii       G#     A     G# G  F#         
 You donít know me but I know you.
Evii              G#         A       G# G    F#
 Itís a real love hate thing; I love to hate you.
Evii         G#      A                      G#  G F#
 I get so frustrated  but tell me just what can I do. 

 Iíll never be

 E5               G#
|----------------|----------------|
|----------------|----------------|
|----9-------9---|----5-------5---|
|--9---9---9---9-|------6-------6-|
|7-------7-------|--6-------6-----|
|----------------|4-------4-------|
 you Iíll never be you Iíll never be

 A5               F#
|----------------|----------------|
|----------------|----------------|
|----------------|----3-----------|
|----7-------7---|------4---------|
|--7---7---7---7-|--4-----4-------|
|5-------5-------|2---------------|
 you Iíll never be you 

E:    022100
G#:   466544
A:    577655
F#:   244322
F:    133211
F#ix: x 9 11 11 11 x 
A13:  575675
G#13: 464564
G13:  353453
F#13: 242342
F#7:  242322

              E                 G#
Iíll never be you Iíll never be you
              A                 F#
Iíll never be you Iíll never be you
     F        E                 G#
Iíll never be you Iíll never be you
              A                 F#ix
Iíll never be you Iíll never be you
              E                 G#
Iíll never be you Iíll never never
           A   A13 G#13 G13 F#13 F#7
Iíll never never              be you
              E                 G#
Iíll never be you Iíll never be you
              A                 F#ix
Iíll never be you Iíll never be you

E5   G#*                A*         F#*            E5
But alas those thoughts pass my daydream fades to black
      G#*     A*                 F#*         E5
Boring me hopelessly wishing that youíd be attackedÖ.
                                    E    G# 
Ö.we can hang out down at The Coffeebean 
A                F#          F     E    G#
 We can hang out down at The Coffeebean
A                  F#          F     E     G#
 You and me hangin down at The Coffeebean
A                A#
 I will never be never never be
  B               A#              A G#  G  E
I know Iíll never know Iíll never never be you

|3-0-----------|
|----3-0-------|
|--------1-----|
|------------2-|
|----------í-2-|
|----------3-0-|

Related for Ill Never Be You Acoustic tab