Song name
# A B C D E F G H I J K L M N O P Q R S T U V W X Y Z

Dangelo - Untitled How Does It Feel tab

-------------------------------------------------------------------------------
                             SONG NAME - Band Name
-------------------------------------------------------------------------------
Tabbed by: Art Vandelay
Tuning: Standard

Main Verse:
  D           Am9      Gmaj9        C13

e|-5----------7--------7--------------8------------------------------------------------|
B|-7--8-/10---5--------7-----7-------10------------------------------------------------|
G|-7----------5--------7-------9--7-- 9------------------------------------------------|
D|-7----------5--------7--------------8------------------------------------------------|
A|-5--------- 7------- 8---------------------------------------------------------------|
E|------------5------------------------------------------------------------------------|

The bridge, I believe, then goes: F7 - E7 - A7 - D


************************************

| /   slide up
| \   slide down
| h   hammer-on
| p   pull-off
| ~   vibrato
| +   harmonic
| x   Mute note
| b   Bend
| pb  Pre-bend
| br  Bend release
| pbr Pre-bend release
| brb Bend release bend

************************************
Tap to rate this tab
 
# A B C D E F G H I J K L M N O P Q R S T U V W X Y Z