Song name
# A B C D E F G H I J K L M N O P Q R S T U V W X Y Z

Danger Danger - Bang Bang tab

DANGER DANGER - BANG BANG

This is a classic in tune of 80's and have taken my time to write down from the video!
Andy Timmons is the guitarist who has rythm, solos and riffs for the song! 
I hope you have a nice day with this awesome song!
I took many parts from live performace!



BPM :    126 Allegero 4/4 
AMP:     Cranked Marshall plexi (Hot rod)
EQ:      Classic V
Boost:   More gain
Reverb:  somewhere 14 o´clock
Delay:   The 80s style!

*  Palm-mute
P  Pull-of
H  Hammer-on
V  Vibrato
¤  Harmonics
B  Bends
S  Slides


 |             Solo intro begins!            |
 |      *           * *       *              |
e|-------------------------------------------|
B|--------------3-3--------------------------|
G|-------2-----------------------------------|
D|----2--0--0-0-0-0---------------------2----| 
A|----0-0---x-x-x-x-----4-4-4---5-5-5/4-0----|
E|----------3-3-3-3-0-0-2-2-2-0-3-5-3/2------|

 |          Solo intro continues!            |
 |      *           * *       *              |
e|-------------------------------------------|
B|--------------3-3--------------------------|
G|-------2-----------------------------------|
D|----2--0--0-0-0-0---------------------2----| 
A|----0-0---x-x-x-x-----4-4-4---5-5-5/4-0----|
E|----------3-3-3-3-0-0-2-2-2-0-3-5-3/2------|

 |               Solo intro Ends!                |              
 |      * * * *    * * * *     * * * *    *      |
e|-----------------------------------------------|
B|-----------------------------------------------|
G|-----------------------------------------------|
D|-------------2-2--------------------2-2---2\---|
A|--5-5--------0-0-0-0-0-0-5-5--------0-0-0-0\---|
E|--3-3-0-0-0-0------------3-3-0-0-0-0-----------|

       * * * * *     * * * * *     * * * *      * * * * *
e|--------------------------------------------------------|
B|--------------------------------------------------------|
G|--------------------------------------------------------|
D|---------------2-2------------------------2-2-----------| 
A|-5-5-----------0-0-0-0-0-0-0-5-5----------0-0-0-0-0-0-0-|
E|-3-3-0-0-0-0-0---------------3-3-0-0-0-0-0--------------|

                                                  
        * * * *    * * * *     * * * *            * * * *
e|--------------------------------------------------------|
B|--------------------------------------------------------|
G|--------------------------------------------------------|
D|-------------2-2---------------------2------2-2---------|
A|--5-5--------0-0-0-0-0-0-5-5----------2-3---0-0-0-0-0-0-|
E|--3-3-0-0-0-0------------3-3-0-0-0-0---2-3-0------------|

       * * * * *     * * * * *    * * * * *     * * * * 
e|-------------------------------------------------------|
B|-------------------------------------------------------|
G|-------------------------------------------------------|
D|---------------2-2-------------------------2-2---------| X2
A|-5-5-----------0-0-0-0-0-0-0-5-5-----------0-0-0-0-0-0-|
E|-3-3-0-0-0-0-0---------------3-3-0-0-0-0-0-------------|


                               * * * * *
e|---------------------------------------|
B|---------------------------------------|
G|----4----------------------------------|
D|----2-----2----------------------------|
A|---0--5-4-0-----2--4~/5-5~-5-----------|
E|--2---------5-4-0--2~/3-3~-3-0-0-0-0-0-|

        *           * *       *
e|-------------------------------------------|
B|--------------3-3--------------------------|
G|-------2-----------------------------------|
D|----2--0--0-0-0-0---------------------2----| X2
A|----0-0---x-x-x-x-----4-4-4---5-5-5/4-0----|
E|----------3-3-3-3-0-0-2-2-2-0-3-5-3/2------|

                     |           Riffs!            |
 |      * * * *    * | * * *     * * * *    *      |
e|-------------------|-----------------------------|
B|-------------------|-----------------------------|
G|-------------------|-----------------------------|
D|-------------2-2---|------------------2-2---2\---|
A|--5-5--------0-0-0-|-0-0-0-5-5--------0-0-0-0\---|
E|--3-3-0-0-0-0------|-------3-3-0-0-0-0-----------|

       * * * * *     * * * * *     * * * * *    * * * * *
e|--------------------------------------------------------|
B|--------------------------------------------------------|
G|--------------------------------------------------------|
D|---------------2-2------------------------2-2-----------| 
A|-5-5-----------0-0-0-0-0-0-0-5-5----------0-0-0-0-0-0-0-|
E|-3-3-0-0-0-0-0---------------3-3-0-0-0-0-0--------------|


                                                  |  Riffs! |
        * * * *    * * * *     * * * *            | * * * * |
e|------------------------------------------------|---------|
B|------------------------------------------------|---------|
G|------------------------------------------------|---------|
D|-------------2-2---------------------2------2-2-|---------|
A|--5-5--------0-0-0-0-0-0-5-5----------2-3---0-0-|-0-0-0-0-|
E|--3-3-0-0-0-0------------3-3-0-0-0-0---2-3-0----|---------|

       * * * * *     * * * * *     * * * *      * * * * *
e|--------------------------------------------------------|
B|--------------------------------------------------------|
G|--------------------------------------------------------|
D|---------------2-2------------------------2-2-----------| X2
A|-5-5-----------0-0-0-0-0-0-0-5-5----------0-0-0-0-0-0-0-|
E|-3-3-0-0-0-0-0---------------3-3-0-0-0-0-0--------------|

                               * * * * *
e|---------------------------------------|
B|---------------------------------------|
G|----4----------------------------------|
D|----2-----2----------------------------|
A|---0--5-4-0-----2--4~/5-5~-5-----------|
E|--2---------5-4-0--2~/3-3~-3-0-0-0-0-0-|

        *           * *       *
e|-------------------------------------------|
B|--------------3-3--------------------------|
G|-------2-----------------------------------|
D|----2--0--0-0-0-0---------------------2----| X2
A|----0-0---x-x-x-x-----4-4-4---5-5-5/4-0----|
E|----------3-3-3-3-0-0-2-2-2-0-3-5-3/2------|


 |                 Solo begins and fades!                   |
 |      * * * *   * * * *   * * * *   * * *                 |
e|----------------------------------------------------------|
B|----------------------------------------------------------|
G|----------------------------------------------------------|
D|--2-2---------5---------0---------5-----------------------|
A|--0-0-0-0-0-0-3-3-3-3-3-2-0-0-0-0-3-3-3-3--5p3------------|
E|--------------------------------------------5p3-3h4p3h4~--|
           
 |   4/4  | 4/4 Beats!|
 |        |   *       |      *           * *   *            |
e|--------|-----------|-------------------------------------|
B|--------|-----------|--------------3-3--------------------|
G|--------|-----2-----|-------2-----------------------------|
D|--------|--2--0-----|----2--0--0-0-0-0---------------2----| 
A|--------|--0-0------|----0-0---x-x-x-x-----4---5-5/4-0----|
E|--------|-----------|----------3-3-3-3-0-0-2-0-3-3/2------|

 |         Riffs and the end is solo !         |
 |      *           * *       *                |
e|---------------------------------------------|
B|--------------3-3----------------------------|
G|-------2-------------------------------------|
D|----2--0--0-0-0-0-----------------------2----| X7 Fade
A|----0-0---x-x-x-x-----4-4-4---5-5-5-5/4-0----|
E|----------3-3-3-3-0-0-2-2-2-0-3-3-3-3/2------|
Tap to rate this tab
# A B C D E F G H I J K L M N O P Q R S T U V W X Y Z