Song name
# A B C D E F G H I J K L M N O P Q R S T U V W X Y Z

Danger Doom - Crosshairs tab

-------------------------------------------------------------------------------
                             CROSSHAIRS - Danger Doom
-------------------------------------------------------------------------------
Tabbed by: getgetgotgot
E-mail: Yes

Tuning: Standard

The other version that's on here didn't sound totally accurate to me so I decided to 
give it a go. This is what I got:

e|---------------------------------------------------------------------------|
B|---------------------------------------------------------------------------|
G|---------------------------------------------------------------------------|
D|7---------------7---------------7---------------7--------------------------|
A|--6-5-------------6-5-------------6-5-------------6-5----------------------|
E|------8-5-x-x-x-------8-5-x-x-x-------8-5-x-x-x-------8-5-x-x-x------------|

e|---------------------------------------------------------------------------|
B|--------------5-x-x-6-x-x-6---x-7---7-x-7---x-6----------------------------|
G|--------------5-x-x-7-x-x-7---x-7---7-x-7---x-7----------------------------|
D|--------------7-x-x-6-x-x-6---x-5---5-x-5---x-6-7--------------------------|
A|7-----------x-------------------------------------6-5----------------------|
E|5-----------x-----------------------------------------8-5-x-x-x------------|

e|---------------------------------------------------------------------------|
B|--------------5-x-x-6-x-x-6---x-7---7-x-7---x-6-----8p6--------------------|
G|--------------5-x-x-7-x-x-7---x-7---7-x-7---x-7---------9p7-7-7------------|
D|--------------7-x-x-6-x-x-6---x-5---5-x-5---x-6----------------------------|
A|7-----------x--------------------------------------------------------------|
E|5-----------x--------------------------------------------------------------|

e|---------------------------------------------------------------------------|
B|--------------5-x-x-6-x-x-6---x-7---7-x-7---x-6-----8p6--------------------|
G|--------------5-x-x-7-x-x-7---x-7---7-x-7---x-7---------9p7-7-7------------|
D|--------------7-x-x-6-x-x-6---x-5---5-x-5---x-6----------------------------|
A|7-----------x--------------------------------------------------------------|
E|5-----------x--------------------------------------------------------------|

Then it goes into the main part of the song and the guitar just does some noodly stuff 
which I'm not going to bother tabbing out. If you really want to play that stuff just 
improvise around the A minor blues scale.

The dead notes in that descending riff part aren't actually played. I just added them 
because it sounds kind of empty without the bass. Feel free to ignore them if you're 
playing along to the track or whatever.

************************************

| /   slide up
| \   slide down
| h   hammer-on
| p   pull-off
| ~   vibrato
| +   harmonic
| x   Mute note
| b   Bend
| pb  Pre-bend
| br  Bend release
| pbr Pre-bend release
| brb Bend release bend

************************************
Tap to rate this tab
# A B C D E F G H I J K L M N O P Q R S T U V W X Y Z