Guitaretab - guitar tabs
Song name
# A B C D E F G H I J K L M N O P Q R S T U V W X Y Z

Danger Is My Middle Name - Sidecar One tab

-------------------------------------------------------------------------------
			     Sidecar One - DIMMN
-------------------------------------------------------------------------------
Tabbed by: Diana
Email: beachx3blonde5@hotmail.com

Tuning:
[ Tab from: http://www.guitaretab.com/d/danger-is-my-middle-name/118020.html ]
e|------------------------------------------------------------------------------|
B|------------------------------------------------------------------------------|
G|-00---4--6--8--6--10-8---0--6--8--6--13---------------------------------------|
D|-00---x--x--x--x--x--x---0--x--x--x---x---------------------------------------|
A|-00---2--4--6--4--8--6---0--4--6--4--11---------------------------------------|
E|------------------------------------------------------------------------------|


e|-----------------------------------------------------------------------------|
B|-----------------------------------------------------------------------------|
G|-00---4--6--8--6--10-8---0--6--8---13----------------------------------------|
D|-00---x--x--x--x--x--x---0--x--x---x-----------------------------------------|
A|-00---2--4--6--4--8--6---0--4-6---11----------------------------------------|
E|-----------------------------------------------------------------------------|
  Sorry this is all i have for now
Related for Sidecar One tab