Song name
# A B C D E F G H I J K L M N O P Q R S T U V W X Y Z

Danger Mouse - A Dark March tab

 Aight' This is my first tab so leave your critism for laterz please.

 |-------------------------------|
 |-------------------------------|
 |-------------------------------|
 |-------------------------------|
 |----5-5-5-5/7--7-7/8-8-7-5-8---|
 |--5--------------------------5-|


 |-------------------------------|
 |-------------------------------|
 |-------------------------------|
 |-------------------------------|
 |----5-5-5-5/7--7-7/8-8-7-5---8-|
 |--5------------------------5---|


 You may need to listen to the song since im shit Enjoy ;)
Tap to rate this tab
# A B C D E F G H I J K L M N O P Q R S T U V W X Y Z