Song name
# A B C D E F G H I J K L M N O P Q R S T U V W X Y Z

Danger Radio - Your Kind Speak To Me Acoustic tab

Help us improve GuitareTab! Take a short survey!
e|---------------------------------------------------------|
B|---------------------------------------------------------|
G|-------1-0-----------------------------------------------|
D|---3-------3-----3-3--x----------------------------------|
A|-------------3---4-4--x-------3-----x------3-------------|
E|-1---1-------------------3-4----4---x---3-----3---3-3-2-1|

e|---------------------------------------------------------|
B|---------------------------------------------------------|
G|-------1-0-----------------------------------------------|
D|---3-------3-----3-3--x----------------------------------|
A|-------------3---4-4--x-------3-----x--------------------|
E|-1---1-------------------3-4----4---x---3---------3-3-2-1|
Related for Your Kind Speak To Me Acoustic tab