Song name
# A B C D E F G H I J K L M N O P Q R S T U V W X Y Z

Daniel Adams-ray - Vitt tab

 hi guys this is the intro and the main riff for the song.
 tuning   E B G D A E  - Standard

 | " vitt " by daniel adams - ray ! |





 RIFF 1

 E |----------------------------------------------------|
 B |----------3-3-0-------------------------------------|
 G |-0--0-2-4-------4-2-0----0-2-0----------------------|
 D |----------------------------------------------------|
 A |----------------------------------------------------|
 E |----------------------------------------------------|

 RIFF 2

 E |----------------------------------------------------|
 B |----------3-3-0-3-5-33------------------------------|
 G |-0--0-2-4-------------------------------------------|
 D |----------------------------------------------------|
 A |----------------------------------------------------|
 E |----------------------------------------------------|
Tap to rate this tab
# A B C D E F G H I J K L M N O P Q R S T U V W X Y Z