Song name
# A B C D E F G H I J K L M N O P Q R S T U V W X Y Z

Daniel Andriano - This Light tab

Daniel Andriano (the Emergency Room)
This Light

I figured out the intro/verse
which is most of the song so work with it.

NOTE: capo on 2nd fret.

e|--0--0--0--1--|
B|--1--1--1--1--|
G|--0--0--2--2--|
D|--2--0--2--3--|
A|--3--2--0--0--|
E|-----3--------|

something like this...


e|------------------------------------1----|
B|------1---------1---------1----------1-1-|
G|-------0-0-------0-0-------2-2----2---2--|
D|----2---2---------0-----2---2---3--------|
A|--3-----------2-------0------------------|
E|------------3----------------------------|

figure out the rest!
Tap to rate this tab
 
# A B C D E F G H I J K L M N O P Q R S T U V W X Y Z