Daniel Bedingfield - If Youre Not The One Acoustic tab

-------------------------------------------------------------------------------
			     if you're not the one- Daniel Beding field
-------------------------------------------------------------------------------
Tabbed by:totim
Email:totziemoron@yahoo.com

Tuning:standard

            yeah          yeah      woohoo

e|-------2--|--------2-|--------2--|--------2-----------------------|
B|-----2----|------0---|------2----|------0-------------------------|
G|---4------|----1-----|----4------|----1---------------------------|
D|-4--------|--2-------|--4--------|--2-----------------------------|
A|----------|----------|-----------|--------------------------------|
E|----------|----------|-----------|--------------------------------|

If you're not the one then why does my soul feel glad ..........today

e|-------2-----------------------------------------------2--------------2-----------|
B|-----2-----------------------------------------------0-------------------0--------|
G|---4-----------------------------------------------1-----------------------1------|
D|-4-------------------------------------------==--2---------------------------2----|
A|----------------------------------------------------------------------------------|
E|----------------------------------------------------------------------------------|

If you're not the one then why does my hand fit yours this way?

e|-------2--------------------------------------------2---------------------|
B|-----2--------------------------------------------0-----------------------|
G|---4--------------------------------------------1-------------------------|
D|-4--------------------------------------------2---------------------------|
A|--------------------------------------------------------------------------|
E|--------------------------------------------------------------------------|

If you are not mine then why does your heart return.............. my call

e|-------2--------------------------2--------2---------2---2------------2---2----|
B|-----2--------------------------2--------2---------0-------0-------0--------0--|
G|---4--------------------------4--------4---------1-----------1---1-------------|
D|-4--------------------------4--------4---------2-------2-------2---------2-----|
A|-------------------------------------------------------------------------------|
E|-------------------------------------------------------------------------------|

If you are not mine would I have the strength to stand.......at all

e|-------2------------------------2---------2-------------2-------------2--------|
B|-----2------------------------2---------2-------------0-------------0-------0--|
G|---4------------------------4---------4-------------1-------------1-------1----|
D|-4------------------------4---------4-------------2-------------2-------2------|
A|-------------------------------------------------------------------------------|
E|-------------------------------------------------------------------------------|

      I never know what the future brings

e|-----------------------2---0---------------------------------------------------|
B|----------4--------------------------------------------------------------------|
G|------4----4--------4----------------------------------------------------------|
D|--------6-----6--4-------4-----------------------------------------------------|
A|----6----------2---------------------------------------------------------------|
E|-4-----------------------------------------------------------------------------|

But I know you are here with me now       We'll make it through    And I hope you are 
one I share my life with

e|-----------------------------------------------------------2----------------2---------4---6---7|
B|------4------4--------------------3-----2------0------------2----------------------------------|
G|-----------4-----4------------------4-----4--------------4-----------------4-------------------|
D|---------6----------6-----------------4------4-----4---4-----------------4------------0---0---0|
A|--------6--------------2----------------------------2--------2--------2------------------------|
E|------4----------------------------------------------------------------------------------------|

chorus:

    I don't want to run away but I can't take it, I don't understand

e|-----2-2--2----------2-2--2-------4-4--4------2-2--2-------2-2--2------------------|
B|-----2-2--2----------2-2--2-------5-5--5------2-2--2-------2-2--2------------------|
G|-----4-4--4----4-----4-4--4-------6-6--6------4-4--4-------4-4--4------------------|
D|---4---------------4------------6-----------2---------2--2---------2---------------|
A|-2-----------2---2----------2-4-----------4----------------------------------------|
E|-----------------------------------------------------------------------------------|

If I'm not made for you then why does my heart tell me that I am?

e|-----2-2--2----------2-2--2-------4-4--4------2-2--2-------2-2--2------------------|
B|-----2-2--2----------2-2--2-------5-5--5------2-2--2-------2-2--2------------------|
G|-----4-4--4----4-----4-4--4-------6-6--6------4-4--4-------4-4--4------------------|
D|---4---------------4------------6-----------2---------2--2---------2---------------|
A|-2-----------2---2----------2-4-----------4----------------------------------------|
E|-----------------------------------------------------------------------------------|

       Is there any way that I can stay in your arms?
e|------4-4--4---------2-2-----------------4----------2----------------(2)-----------|
b|------4-4--4---------2-2---------------5----------0---0----------(0)-----(0)-------|
g|------4-4--4---------3-3-------------6----------1-------1----(1)-------------------|
-|-------------------4---------------6-------0-2-------------2------------------(2)--|..itutuloy...
a|---6-------------4---------------4-------------------------------------------------|
e|-4-----------4-2-------------------------------------------------------------------|
************************************

| /   slide up
| \   slide down
| h   hammer-on
| p   pull-off
| ~   vibrato

************************************
Tap to rate this tab
 
# A B C D E F G H I J K L M N O P Q R S T U V W X Y Z