Song name
# A B C D E F G H I J K L M N O P Q R S T U V W X Y Z

Daniel Belanger - Facile tab

Facile
Daniel Belanger
Album : Nous (2009)

Capo III
Riff :                        D
|--------------------------|--2----2----2----2----|
|--------------------------|--3----3----3----3----|
|--------------------------|--2----2----2----2----|
|-----0h2-0---------0h2-0--|--0----0----0----0----|
|-0h3-------5\4\3-0-------3|----------------------|
|--------------------------|----------------------|
                              A
|--------------------------|--0----0----0----0----|
|--------------------------|--2----2----2----2----|
|--------------------------|--2----2----2----2----|
|-----0h2-0---------0h2-0--|--2----2----2----2----|
|-0h3-------5\4\3-0-------3|--0----0----0----0----|
|--------------------------|----------------------|
h= hammer on       


Riff X 2

E
Au fond des choses il m'apparait
                                             D 
que s'affronter soi-meme n'est pas si mauvais.
                                 A        E             D
Au fond des choses transparaissent- les avantages des desavantages.

Riff                                                     Riff
Mais ce n'est jamais facile - Mais ce n'est jamais facile.


E
Au fond des choses il apparait
                            D
que le temps simplifie ma vie
                                                   A
Je ne veux pas etre amer - je ne veux pas etre amer. 
E                                  D
Je veux aimer tout ce que j'ai fait


Riff                                                     Riff
Mais ce n'est jamais facile - Mais ce n'est jamais facile        (Repeter)



Tablature par Gilles Renard  -  renard.gilles@laposte.net
Tap to rate this tab
# A B C D E F G H I J K L M N O P Q R S T U V W X Y Z