Song name
# A B C D E F G H I J K L M N O P Q R S T U V W X Y Z

Daniel Fortea - Soleares tab

Daniel Fortea  "Soleares" - an Andalusian folk song.
 
I believe this is an edited version. Full version would be appreciated.
                                    
Arpeggio/Rascuedo: ^ = play down, ! = play up.     tabbed by dave1770@mail.com

3/4  Moderato

   |    |    |       |     |     |       |     |     |       |     |     |
|-^0---^0---^0----|-^0-!0-^0-!0-^0----|-^0----^0----^0----|-^0-!0-^0-!0-^0----|
|-^0---^0---^0----|-^0-!0-^0-!0-^0----|-^0----^1----^1----|-^0-!0-^0-!0-^0----|
|-^1---^1---^1----|-^1-!1-^1-!1-^1----|-^1----^2----^2----|-^1-!1-^1-!1-^1----|
|-^2---^2---^2----|-^2-!2-^2-!2-^2----|-^2----^3----^3----|-^2-!2-^2-!2-^2----|
|-^2---^2---^2----|-^2----------^2----|-^2----^0----^0----|-^2----------^2----|
|-^0---^0---^0----|-^0----------^0----|-^0----------------|-^0----------^0----|
   rascuedo             i  i  i                                     

   |    |    |       |     |     |       |     |     |       |     |     | 
|-^3---^3---^3----|-^3-!3-^3-!3-^3----|-^1----^1----^1----|-^0-!0-^0-!0-^0---||
|-^3---^3---^3----|-^3-!3-^3-!3-^3----|-^1----^1----^1----|-^0-!0-^0-!0-^0---||
|-^4---^4---^4----|-^4-!4-^4-!4-^4----|-^2----^2----^2----|-^1-!1-^1-!1-^1---||
|-^5---^5---^5----|-^5-!5-^5-!5-^5----|-^3----^3----^3----|-^2-!2-^2-!2-^2---||
|-^5---^5---^5----|-^5----------^5----|-^3----^3----^3----|-^2----------^2---||
|-^3---^3---^3----|-^3----------^3----|-^1----^1----^1----|-^0----------^0---||

  |     |     |       |     |      |       |       |       |  
|-------------------|----0--------^0-----|-------0-------0-------|
|----------1--------|----------0--^0-----|-----1-------1---------|
|----2--------------|-------1-----^1-----|---2-------2-----------|
|-------------3-----|-------------^2-----|-----------------3-----|
|-0-----3-----------|--------------------|-0-------3-------------|
|-------------------|-0------------------|-----------------------|
     2  3  1  4       p  a  i  m   p          2 1  3 2 1   4

  |     |      |       |       |       |       |     |      | 
|----0--------^0-----|-------0-------0-------|----3--------^3-----|
|----------0--^0-----|-----1-------1---------|----------3--^3-----|
|-------1-----^1-----|---2-------2-----------|-------4-----^4-----|
|-------------^2-----|-----------------3-----|-------------^5-----|
|--------------------|-0-------3-------------|--------------------|
|-0------------------|-----------------------|-3------------------|
             
  |     |      |       |     |      |       |     |    |   
|----1--------^1-----|----0--------^0-----|------------------|
|----------1--^1-----|----------0--^0-----|-1h3p1-0----------| 
|-------2-----^2-----|-------1-----^1-----|-2-----0----2-----| 
|-------------^3-----|-------------^2-----|------------3-----| 
|--------------------|--------------------|------------------|
|-1------------------|-0------------------|------------------| 
                                            1 4 1      2
                                            2   2      3

  |     |      |       |     |    |       |     |      |   
|-------------^0-----|------------------|-------------^0-----|
|----0-----0--^0-----|-1h3p1-0----------|----0-----0--^0-----|
|-------1-----^1-----|-2-----0----2-----|-------1-----^1-----| 
|-------------^2-----|------------3-----|-------------^2-----|
|--------------------|------------------|--------------------|
|-0------------------|------------------|-0------------------|

  |     |    |       |     |    |       |     |    |       |     |      |
|------------------|------------------|------------------|-------------^0---||
|-1h3p1-0----1-----|-3h5p3-2----3-----|-1h3p1-0----------|----0-----0--^0---||
|-2-----1----2-----|-4-----3----4-----|-2-----0----2-----|-------1-----^1---||
|------------------|------------------|------------3-----|-------------^2---||
|------------------|------------------|------------------|------------------||
|------------------|------------------|------------------|-0----------------||
  1 4 1      1       1 4 1 1    1       1 4 1      2
  2     2    2       2     2    2       2          3    

   |     |     |       |     |     |       |     |     |     |     |      |
||-------------------|-------------------|-----------------|----0--------^0--||
||-------------------|-------------------|-----------------|----------0--^0--||
||*------------------|-------------------|-----------------|-------1-----^1-*||
||*------------------|----0-----2--0h2h3-|----3-----3------|-------------^2-*||
||----0-----2--0--3--|-2-----3-----------|-2-----0---------|-----------------||
||-0-----4-----------|-------------------|-------------3p0-|-0---------------||
         3  1     2    1     2  1    1 2   1  2     2  1

    |    |    |       |    |    |       |    |    |       |    |        |
||------------------|-----------------|-----------1h3p1-|-0------------^0----||
||-------0----1h3p1-|-0------1--3-----|-0----1----------|----------0-3-^0----||
||*-2---------------|-----------------|-----------------|--------1-----^1---*||
||*-----------------|-----------0-----|-----------3-----|------2-------^2---*||
||--0----2----3-----|-2------3--------|-2----3----------|--------------------||
||------------------|-----------------|-----------------|-0------------------||
    3         1 4 1          1  4            1    1 4 1        2 1   4
         2    3       2      3          2    3    3        

  |       |       |         |       |       |         |       |       | 
|---5-5-5---5-5-5---5-5-5-|---5-5-5---5-5-5---5-5-5-|---5-5-5---5-5-5---5-5-5-|
|-------------------------|-------------------------|-------------------------|
|-------------------------|-------------------------|-0---------------2-------|
|-----------------0-------|---------0-------2-------|---------3---------------|
|-0-------2---------------|-3-----------------------|-------------------------|
|-------------------------|-------------------------|-------------------------|
  p a m i (tremolo)

  |       |       |         |       |       |         |       |       | 
|---0-0-0---0-0-0---0-0-0-|---5-5-5---5-5-5---5-5-5-|---5-5-5---5-5-5---5-5-5-|
|-------------------------|-------------------------|-------------------------|
|-----------------1-------|-------------------------|-------------------------|
|---------2---------------|-----------------0-------|---------0-------2-------|
|-------------------------|-0-------2---------------|-3-----------------------|
|-0-----------------------|-------------------------|-------------------------|

  |       |       |         |     |      |        |     |     |        |
|---5-5-5---5-5-5---5-5-5-|----0--------^0-----|-^0----^0----^0-----|-^0-----*|
|-------------------------|----------0--^0-----|-^0----^0----^0-----|-^0-----*|
|-0---------------2-------|-------1-----^1-----|-^1----^1----^1-----|-^1-----*|
|---------3---------------|-------------^2-----|-^2h3--^2h3--^2h3---|-^2-----*|
|-------------------------|--------------------|--------------------|-^2-----*|
|-------------------------|-0------------------|--------------------|-^0-----*|
                                         p        p 4                  ras.
Tap to rate this tab
# A B C D E F G H I J K L M N O P Q R S T U V W X Y Z