Song name
# A B C D E F G H I J K L M N O P Q R S T U V W X Y Z

Daniel Ghattas - You Suck At Love chords

Highlighted       Show chord diagrams
www.danielghattas.net

Note: This song was originally done by Simple Plan, but this is a cover by Daniel 
Ghattas.  All credit goes to him for this piece.  I wrote this completely by ear 
listening to the song a few times, so if there are any errors, let me know and 
I’ll fix them ASAP!  Also, see the transposed version below for an easier version 
(if you have a capo).  I hope you enjoy this as much as I do!

Verse 1:
Gm
We started off incredible
Bb
Connection undeniable
Eb                                 ([ch]Cm/Eb[/ch])
I swear I thought you were the one forever
Gm
But your love was like a loaded gun
Bb
And you shot me down like everyone
Cm
'Cause everyone's replaceable when you're just so incapable
F
Of getting past skin deep

Refrain:
Eb         Gm
Guess what? Another game over
F            Dm
I got burned but you're the real loser
Eb               Gm          F
I don't know why I wasted my time with you
Eb               Gm
You're bad news; a history repeater
                Dm
You can't trust a serial cheater
Eb                     F
You're good at hooking up
(F)
But you suck at love

Verse 2:
Gm
You played me like an amateur
B
Then stabbed me like a murder
Eb                                    (Cm/Eb)
I'm left for dead another one of your victims
Gm
It's not like you're unpredictable
Bb
But your act is so believable
Cm
I know it's nothing personal it's just business as usual
F
You're good at what you do

Refrain:
Eb          Gm
Guess what? Another game over
F            Dm
I got burned but you're the real loser
Eb               Gm          F
I don't know why I wasted my time with you
Eb               Gm
You're bad news; a history repeater
F               Dm
You can't trust a serial cheater
Eb                     F
You're good at hooking up
(F)
But you suck at (love)…

(Instrumental Solo)

e|------------------------------------------------------------------------|
B|------------------------------------------------------------------------|
G|--7----3--5--7--7----3--5--7--5-3-0---3--0-3-0-3------------------------|
D|-------------------------------------------------3----------------------|
A|------------------------------------------------------------------------|
E|------------------------------------------------------------------------|

e|------------------------------------------------------------------------|
B|------------------------------------------------------------------------|
G|--7----3--5--7--7----7--10--12--5-3-0---3--2--0--2-----------------------|
D|------------------------------------------------------------------------|
A|------------------------------------------------------------------------|
E|------------------------------------------------------------------------|

Refrain:
Eb          Gm
Guess what? Another game over
F            Dm
I got burned but you're the real loser
Eb               Gm          F
I don't know why I wasted my time with you
Eb               Gm
You're bad news; a history repeater
F               Dm
You can't trust a serial cheater
Eb                     F
You're good at hooking up
(F)               Bb
But you suck at love…

Bridge:
         Eb
I feel bad for you
             Gm         Bb   F    Cm           Eb              Bb
You're never gonna know what it's like to have someone to turn to
Eb           Gm
Another day, another bed
F           Eb                      
It's just a game inside your head

Outro:
Eb               Gm
You're bad news; a history repeater
F               Dm
You can't trust a serial cheater
Eb                     F
You're good at hooking up
(F)             Bb
But you suck at love…
 

Transposed Version

Capo 1

F#m
We started off incredible
A
Connection undeniable
D                                  [[ch]Bm/D[/ch]]
I swear I thought you were the one forever
F#m
But your love was like a loaded gun
A
And you shot me down like everyone
Bm
'Cause everyone's replaceable when you're just so incapable
E
Of getting past skin deep

Refrain:
D           F#m
Guess what? Another game over
E                Dbm
I got burned but you're the real loser
D                F#m         E
I don't know why I wasted my time with you
D                F#m
You're bad news; a history repeater
E               Dbm
You can't trust a serial cheater
D                      E
You're good at hooking up
(E)
But you suck at love

Verse 2:
F#m
You played me like an amateur
A
Then stabbed me like a murder
D                                     [[ch]Bm/D[/ch]]
I'm left for dead another one of your victims
F#m
It's not like you're unpredictable
A
But your act is so believable
Bm
I know it's nothing personal it's just business as usual
E
You're good at what you do

Refrain:
D           F#m
Guess what? Another game over
E                Dbm
I got burned but you're the real loser
D                F#m         E
I don't know why I wasted my time with you
D                F#m
You're bad news; a history repeater
E               Dbm
You can’t trust a serial cheater
D                      E
You're good at hooking up
(E)
But you suck at (love)…

(Instrumental Solo)

E--------------------------------------|
B--------------------------------------|
G-6--2-4-6-6--2-4-6-4-2---2------------|
D-----------------------5---5---2------|
A--------------------------------------|
E--------------------------------------|

E--------------------------------------|
B--------------------------------------|
G-6--2-4-6-6--6-10—12-4-2---2-1---1----|
D-------------------------5-----5------|
A--------------------------------------|
E--------------------------------------|

Refrain:
D           F#m
Guess what? Another game over
E                Dbm
I got burned but you're the real loser
D                F#m         E
I don't know why I wasted my time with you
D                F#m
You're bad news; a history repeater
E               Dbm
You can't trust a serial cheater

D                      E
You're good at hooking up
(E)               A
But you suck at love…

Bridge:
       D
I feel bad for you
             F#m        A    E    Bm           D               A
You're never gonna know what it's like to have someone to turn to
D            F#m
Another day, another bed
E           D                     
It's just a game inside your head

Outro:
D                F#m
You're bad news; a history repeater
E               Dbm
You can’t trust a serial cheater
D                      E
You're good at hooking up
                A
But you suck at love…
Tap to rate this tab
 
# A B C D E F G H I J K L M N O P Q R S T U V W X Y Z