Song name
# A B C D E F G H I J K L M N O P Q R S T U V W X Y Z

Daniel Greene - Onomatopoeia tab

"Onomatopoeia" by Daniel Greene GUITAR TAB

Hear the song at the links below:
http://www.danielgreene89.com
http://www.youtube.com/danielgreene89


VERSES 1 & 2
e|----------------------------------------------------------|
B|----------------------------------------------------------|
G|----------------------------------------------------------|
D|-----9------9-------9------9------------------------------|
A|--10----10------10-----10---------9------9-----9------9---|
E|------------------------------10-----10-----10----10------|	

1. Tick-tock turn back the clock letís take the past hour and live it all over
2. Ding-dong thereís the doorbell again I sure hope itís you I could use a

e|--------------------------------------------------|
B|--------------------------------------------------|
G|--------------------------------------------------|
D|--------------------------------------------------|
A|----7----7----7----7------9------9-----9------9---|
E|--8----8----8----8-----10-----10-----10----10-----|

1.  again
2.  friend


BRIDGE

e|--------------------------------------------------|
B|--------------------------------------------------|
G|--------------------------------------------------|
D|-----9-10-10s12--10-9------9-10-10s12--10-9-------|
A|--10--------------------10------------------------|
E|--------------------------------------------------|	

e|--------------------------------------------------|
B|--------------------------------------------------|
G|--------------------------------------------------|
D|--------------------------------------------------|
A|-----9-10-10s12--10-9------9-10-10s12--10-9s7-----|
E|--10--------------------10------------------------|

e|-----------------------------------------------|
B|-----------------------------------------------|
G|-----------------------------------------------|
D|-----------------------------------------------|
A|----7-9ó7s5--5s7------7-9-7s5ó5s7--7-s-9-------|
E|--8-----------------8--------------------10----|
	





VERSES  3 & 4
e|----------------------------------------------------------|
B|----------------------------------------------------------|
G|----------------------------------------------------------|
D|-----9------9-------9------9------------------------------|
A|--10----10------10-----10---------9------9-----9------9---|
E|------------------------------10-----10-----10----10------|	

3. Knock-knock this isnít a joke, Iíve got something to tell you so listen real
4. Thump-thump is the sound my heart makes whenever you are with me whenever you are

e|--------------------------------------------------|
B|--------------------------------------------------|
G|--------------------------------------------------|
D|--------------------------------------------------|
A|----7----7----7----7------9------9-----9------9---|
E|--8----8----8----8-----10-----10-----10----10-----|

1.  close
2.  close


BRIDGE again

e|--------------------------------------------------|
B|--------------------------------------------------|
G|--------------------------------------------------|
D|-----9-10-10s12--10-9------9-10-10s12--10-9-------|
A|--10--------------------10------------------------|
E|--------------------------------------------------|	

e|--------------------------------------------------|
B|--------------------------------------------------|
G|--------------------------------------------------|
D|--------------------------------------------------|
A|-----9-10-10s12--10-9------9-10-10s12--10-9s7-----|
E|--10--------------------10------------------------|

e|---------------------------------------------------|
B|---------------------------------------------------|
G|---------------------------------------------------|
D|---------------------------------------------------|
A|----7-9ó7s5--5s7------7-9-7s5ó5s7--7-s-9-------10--| <---End on G note
E|--8-----------------8--------------------10--------|
Tap to rate this tab
 
# A B C D E F G H I J K L M N O P Q R S T U V W X Y Z