Song name
# A B C D E F G H I J K L M N O P Q R S T U V W X Y Z

Daniel Johns And Paul Mac - 3 tab

Daniel Johns&Paul Mac - 3
Tabbed By: Rodrigo
EMail: chair@yahoo.com


Standard tuning

       Fm   G#sus

e||----1----4--------------------------------------|| x2
B||----1----4--------------------------------------||
G||-o--1----6--------------------------------------||
D||-o--3----6--------------------------------------||
A||----3----4--------------------------------------||
E||----1----4--------------------------------------||


       Fm   G#sus     F#m

e||----1----4----0----2-----------------------------|| 
B||----1----4----2----2-----------------------------||
G||-o--1----6----1----2-----------------------------||
D||-o--3----6----2----4-----------------------------||
A||----3----4----0----4-----------------------------||
E||----1----4----0----2-----------------------------||


D# |E 

Bm |Am |Bm |C 

D# |E 

Bm |Am |Bm |C 

       Fm   G#sus     F#m

e||----1----4----0----2-----------------------------|| x4
B||----1----4----2----2-----------------------------||
G||-o--1----6----1----2-----------------------------||
D||-o--3----6----2----4-----------------------------||
A||----3----4----0----4-----------------------------||
E||----1----4----0----2-----------------------------||


D# |E 

Bm |Am |Bm |C 

D# |E 

Bm |Am |Bm |C
Tap to rate this tab
# A B C D E F G H I J K L M N O P Q R S T U V W X Y Z