Song name
# A B C D E F G H I J K L M N O P Q R S T U V W X Y Z

Daniel Johnston - The Monster Inside Of Me tab

I sussed this out over a few Tecates. 

Verse
|----------------|
|---11---4-------|
|---10---3---3---|
|---11---4---3---|
|------------4---|
|---9----2---6---|

Chorus
|-----------------------|
|-------1---2---4---4---|
|---0---2---3---4---5---|
|---1---3---4---4---6---|
|---1---3---4---2---6---|
|-------1---2---2---4---|

End
|-----------------------------|
|---4-4-4-4-6-6-6-6-----------|
|-------------------3-3-3-3---|
|---1-1-1-1-3-3-3-3-----------|
|-------------------1-1-1-1---|
|-----------------------------|

By Sean Hribal
Tap to rate this tab
# A B C D E F G H I J K L M N O P Q R S T U V W X Y Z