Song name
# A B C D E F G H I J K L M N O P Q R S T U V W X Y Z

Daniel Johnston - Speeding Motorcycle chords

Highlighted       Show chord diagrams
	          Speeding Motorcycle - Daniel Johnston
-------------------------------------------------------------------------------
Tabbed by: Christian Demmings
Email: cdemmings@hotmail.com

I dedicate this tab to Anne.

Tuning: Standard

Chords used:

   C Am F G
e|-0-0- 1-3|
B|-1-1- 1-3|
G|-0-2- 2-0|
D|-2-2- 3-0|
A|-3-0- 1-2|
E|-0-0- 1-3|

Intro:

e|-----0-3-0---------------|
B|-1-3-------1----1-1-0--1-|
G|-------------------------| x2
D|-------------------------|
A|-------------------------|
E|-------------------------|

Speeding motorcycle, won't you change me?
Speeding motorcycle, won't you change me?

e|-8--9-9--8---0-1-0-------|
B|-----------3-------1-----|
G|-------------------------|
D|-------------------------|
A|-------------------------|
E|-------------------------|

In a world of funny changes

e|-----0-3-0---------------|
B|-1-3-------1----1-1-0--1-|
G|-------------------------|
D|-------------------------|
A|-------------------------|
E|-------------------------|

Speeding motorcycle, won't you change me?

C Am F C  C Am F C

         C          Am F G    C      Am F G
Speeding motorcycle       of my heart
         C          Am F G      C         Am F G
Speeding motorcycle;     always changing me
         C          Am F G           C     Am      F   G
Speeding motorcycle,      don't you drive recklessly
         C          Am F G    C     Am F G
Speeding motorcycle       of my heart
C                    Am
Pretty girls have taken you for a ride
F                 G                       C
Hurt you deep inside but you never slowed down

Speeding motorcycle in my heart
Speeding motorcycle, let's speed smart

'Cause we don't want to wreck but
We can do a lot of tricks
We don't have to break our necks
To get our kicks

Speeding motorcycle, the road is ours
Speeding motorcycle, let's speed some more

'Cause we don't need reason and we don't need logic
We've got feeling and we're dang proud of it

Speeding motorcycle, there's nothing you can't do
Speeding motorcycle, I love you
Speeding motorcycle, let's just go
Speeding motorcycle
Let's go let's go let's go
Oo oo 
Tap to rate this tab
# A B C D E F G H I J K L M N O P Q R S T U V W X Y Z