Song name
# A B C D E F G H I J K L M N O P Q R S T U V W X Y Z

Daniel Johnston - Worried Shoes chords

Highlighted       Show chord diagrams
-------------------------------------------------------------------------------
			     Worried Shoes - Daniel Johnston
-------------------------------------------------------------------------------
Tabbed by: CDemmings
Email: cdemmings@hotmail.com

Tuning:Standard

   B F# G#m E
e|-2-2--4---0----------------------------------------------------------------|
B|-4-2--4---0----------------------------------------------------------------|
G|-4-3--4---1----------------------------------------------------------------|
D|-4-4--6---2----------------------------------------------------------------|
A|-2-4--6---2----------------------------------------------------------------|
E|-2-2--4---0----------------------------------------------------------------|

B         F#                G#m             B
I took my lucky break and I broke it in two
          E             F#
Put on my worried shoes
   B
My worried shoes
B                    F#                     G#m   
And my shoes took me so many miles and they never wore out
   E             F#
My worried shoes
   B
My worried shoes
E        B                    E
oo oo oo oo oo oo oo oo oo oo
F#m B
My worried shoes

REPEAT

I made a mistake and I never forgot
I tied knots in the laces of
My worried shoes
And with every step that I'd take I'd remember my mistake
As I marched further and further away
In my worried shoes
oo oo oo oo oo oo oo oo oo oo
My worried shoes
And my shoes took me down a crooked path
Away from all welcome mats
My worried shoes
And then one day I looked around and I found the sun shining down
And I took off my worried shoes
My worried shoes
And the feet broke free to breathe the air
I didn't need to wear
My Worried shoes
Then I knew the difference between 
worrying and caring
'Cause I've got a lot of walking to do
And I don't want to wear
My worried shoes


************************************

| /   slide up
| \   slide down
| h   hammer-on
| p   pull-off
| ~   vibrato
| +   harmonic
| x   Mute note
| b   Bend
| pb  Pre-bend
| br  Bend release
| pbr Pre-bend release
| brb Bend release bend

************************************
Tap to rate this tab
 
# A B C D E F G H I J K L M N O P Q R S T U V W X Y Z