Song name
# A B C D E F G H I J K L M N O P Q R S T U V W X Y Z

Daniel Johnston - Speeding Motorcycle tab

Intro:

 Phrase 1
|--------------|-----------|
|-------8------|-----------|
|---8-9---9----|-----------|
|10---------10-|10-10-9-10-| (x2)
|--------------|-----------|
|--------------|-----------|

 Phrase 2
|8--------------------|
|--11-11-8-----8------|
|----------8-9---9----|
|------------------10-|
|---------------------|
|---------------------|

Repeat Phrase 1 once.

C, F, G, F (x3)

         C          F, G, F
Speeding motorcycle 
      C      F, G, F
of my heart

*continue using above sequence until

C                Am
 Many girls have taken you for a ride
F                G                         C     Am, F, G
 Hurt you deep inside but you never slowed down
         C          F, G, F
Speeding motorcycle

*then it continues with the C, F, G, F sequence til the end.

Tap to rate this tab
 
# A B C D E F G H I J K L M N O P Q R S T U V W X Y Z